ISO-10303-21;
HEADER;
FILE_DESCRIPTION (( 'STEP AP214' ),
    '1' );
FILE_NAME ('TOR254.step',
    '2015-09-21T11:30:23',
    ( '' ),
    ( '' ),
    'SwSTEP 2.0',
    'SolidWorks 2015',
    '' );
FILE_SCHEMA (( 'AUTOMOTIVE_DESIGN' ));
ENDSEC;

DATA;
#1 = DIRECTION ( 'NONE',  ( 0.0000000000000000000, -0.0000000000000000000, -1.000000000000000000 ) ) ;
#2 = CIRCLE ( 'NONE', #205, 50.99999999999978000 ) ;
#3 = ORIENTED_EDGE ( 'NONE', *, *, #150, .F. ) ;
#4 = FILL_AREA_STYLE ('',( #50 ) ) ;
#5 = LINE ( 'NONE', #57, #39 ) ;
#6 = CARTESIAN_POINT ( 'NONE',  ( 9.714451465470119700E-014, 14.99999999999998600, 0.0000000000000000000 ) ) ;
#7 =( LENGTH_UNIT ( ) NAMED_UNIT ( * ) SI_UNIT ( .MILLI., .METRE. ) );
#8 = CIRCLE ( 'NONE', #171, 50.99999999999978000 ) ;
#9 = PRODUCT_DEFINITION_SHAPE ( 'NONE', 'NONE',  #94 ) ;
#10 = ORIENTED_EDGE ( 'NONE', *, *, #150, .T. ) ;
#11 = LINE ( 'NONE', #113, #46 ) ;
#12 = DIRECTION ( 'NONE',  ( 0.0000000000000000000, -1.000000000000000000, 0.0000000000000000000 ) ) ;
#13 = DIRECTION ( 'NONE',  ( 0.0000000000000000000, -1.000000000000000000, 0.0000000000000000000 ) ) ;
#14 = ADVANCED_FACE ( 'NONE', ( #103, #184 ), #197, .T. ) ;
#15 = VERTEX_POINT ( 'NONE', #133 ) ;
#16 = ORIENTED_EDGE ( 'NONE', *, *, #118, .T. ) ;
#17 = SURFACE_STYLE_USAGE ( .BOTH. , #101 ) ;
#18 = CARTESIAN_POINT ( 'NONE',  ( 9.714451465470119700E-014, 0.0000000000000000000, -32.99999999999986500 ) ) ;
#19 =( NAMED_UNIT ( * ) SI_UNIT ( $, .STERADIAN. ) SOLID_ANGLE_UNIT ( ) );
#20 = CIRCLE ( 'NONE', #165, 32.99999999999986500 ) ;
#21 = EDGE_LOOP ( 'NONE', ( #167, #146 ) ) ;
#22 = DIRECTION ( 'NONE',  ( 0.0000000000000000000, -1.000000000000000000, 0.0000000000000000000 ) ) ;
#23 = CARTESIAN_POINT ( 'NONE',  ( 1.011858490918874400E-013, 0.0000000000000000000, 32.99999999999986500 ) ) ;
#24 = ORIENTED_EDGE ( 'NONE', *, *, #115, .T. ) ;
#25 = CARTESIAN_POINT ( 'NONE',  ( 9.714451465470119700E-014, 0.0000000000000000000, 0.0000000000000000000 ) ) ;
#26 = ORIENTED_EDGE ( 'NONE', *, *, #105, .T. ) ;
#27 = CYLINDRICAL_SURFACE ( 'NONE', #161, 50.99999999999978000 ) ;
#28 =( NAMED_UNIT ( * ) PLANE_ANGLE_UNIT ( ) SI_UNIT ( $, .RADIAN. ) );
#29 =( NAMED_UNIT ( * ) PLANE_ANGLE_UNIT ( ) SI_UNIT ( $, .RADIAN. ) );
#30 = CARTESIAN_POINT ( 'NONE',  ( 0.0000000000000000000, 0.0000000000000000000, 0.0000000000000000000 ) ) ;
#31 = CARTESIAN_POINT ( 'NONE',  ( 9.714451465470119700E-014, 14.99999999999998600, 0.0000000000000000000 ) ) ;
#32 = CARTESIAN_POINT ( 'NONE',  ( 9.714451465470119700E-014, 0.0000000000000000000, 0.0000000000000000000 ) ) ;
#33 = PLANE ( 'NONE',  #81 ) ;
#34 = EDGE_LOOP ( 'NONE', ( #196, #24, #82, #3 ) ) ;
#35 = ORIENTED_EDGE ( 'NONE', *, *, #179, .T. ) ;
#36 = DIRECTION ( 'NONE',  ( 0.0000000000000000000, 0.0000000000000000000, -1.000000000000000000 ) ) ;
#37 = DIRECTION ( 'NONE',  ( 0.0000000000000000000, 0.0000000000000000000, -1.000000000000000000 ) ) ;
#38 = ADVANCED_FACE ( 'NONE', ( #174 ), #178, .F. ) ;
#39 = VECTOR ( 'NONE', #22, 1000.000000000000000 ) ;
#40 = DIRECTION ( 'NONE',  ( 1.000000000000000000, 0.0000000000000000000, 0.0000000000000000000 ) ) ;
#41 = FACE_BOUND ( 'NONE', #211, .T. ) ;
#42 = DIRECTION ( 'NONE',  ( 0.0000000000000000000, 0.0000000000000000000, -1.000000000000000000 ) ) ;
#43 = DIRECTION ( 'NONE',  ( 0.0000000000000000000, 0.0000000000000000000, -1.000000000000000000 ) ) ;
#44 = DIRECTION ( 'NONE',  ( 0.0000000000000000000, 0.0000000000000000000, 1.000000000000000000 ) ) ;
#45 = DIRECTION ( 'NONE',  ( 0.0000000000000000000, -1.000000000000000000, 0.0000000000000000000 ) ) ;
#46 = VECTOR ( 'NONE', #193, 1000.000000000000000 ) ;
#47 = CARTESIAN_POINT ( 'NONE',  ( 9.714451465470119700E-014, 14.99999999999998600, 0.0000000000000000000 ) ) ;
#48 = ORIENTED_EDGE ( 'NONE', *, *, #115, .F. ) ;
#49 = ORIENTED_EDGE ( 'NONE', *, *, #117, .T. ) ;
#50 = FILL_AREA_STYLE_COLOUR ( '', #56 ) ;
#51 = ORIENTED_EDGE ( 'NONE', *, *, #128, .T. ) ;
#52 = UNCERTAINTY_MEASURE_WITH_UNIT (LENGTH_MEASURE( 1.000000000000000100E-005 ), #121, 'distance_accuracy_value', 'NONE');
#53 = PRODUCT ( 'TOR254', 'TOR254', '', ( #155 ) ) ;
#54 = FACE_OUTER_BOUND ( 'NONE', #76, .T. ) ;
#55 = CIRCLE ( 'NONE', #164, 32.99999999999986500 ) ;
#56 = COLOUR_RGB ( '',0.7921568627450980000, 0.8196078431372548800, 0.9333333333333333500 ) ;
#57 = CARTESIAN_POINT ( 'NONE',  ( 9.714451465470119700E-014, 14.99999999999998600, -50.99999999999978000 ) ) ;
#58 = FILL_AREA_STYLE_COLOUR ( '', #213 ) ;
#59 = ORIENTED_EDGE ( 'NONE', *, *, #118, .F. ) ;
#60 = CARTESIAN_POINT ( 'NONE',  ( 9.714451465470119700E-014, 14.99999999999998600, 0.0000000000000000000 ) ) ;
#61 = APPLICATION_PROTOCOL_DEFINITION ( 'draft international standard', 'automotive_design', 1998, #173 ) ;
#62 = CYLINDRICAL_SURFACE ( 'NONE', #172, 50.99999999999978000 ) ;
#63 = CARTESIAN_POINT ( 'NONE',  ( 9.714451465470119700E-014, 14.99999999999998600, 0.0000000000000000000 ) ) ;
#64 = VERTEX_POINT ( 'NONE', #78 ) ;
#65 = FILL_AREA_STYLE ('',( #58 ) ) ;
#66 = ORIENTED_EDGE ( 'NONE', *, *, #107, .F. ) ;
#67 = FACE_OUTER_BOUND ( 'NONE', #168, .T. ) ;
#68 = UNCERTAINTY_MEASURE_WITH_UNIT (LENGTH_MEASURE( 1.000000000000000100E-005 ), #119, 'distance_accuracy_value', 'NONE');
#69 =( GEOMETRIC_REPRESENTATION_CONTEXT ( 3 ) GLOBAL_UNCERTAINTY_ASSIGNED_CONTEXT ( ( #52 ) ) GLOBAL_UNIT_ASSIGNED_CONTEXT ( ( #121, #29, #136 ) ) REPRESENTATION_CONTEXT ( 'NONE', 'WORKASPACE' ) );
#70 = CARTESIAN_POINT ( 'NONE',  ( 9.714451465470119700E-014, 14.99999999999998600, 0.0000000000000000000 ) ) ;
#71 = DIRECTION ( 'NONE',  ( 0.0000000000000000000, -1.000000000000000000, 0.0000000000000000000 ) ) ;
#72 = VECTOR ( 'NONE', #212, 1000.000000000000000 ) ;
#73 = ADVANCED_FACE ( 'NONE', ( #181 ), #100, .F. ) ;
#74 = VERTEX_POINT ( 'NONE', #177 ) ;
#75 = CARTESIAN_POINT ( 'NONE',  ( 9.714451465470119700E-014, 0.0000000000000000000, 0.0000000000000000000 ) ) ;
#76 = EDGE_LOOP ( 'NONE', ( #175, #90, #127, #66 ) ) ;
#77 = AXIS2_PLACEMENT_3D ( 'NONE', #47, #116, #198 ) ;
#78 = CARTESIAN_POINT ( 'NONE',  ( 1.033902133303526800E-013, 0.0000000000000000000, 50.99999999999978000 ) ) ;
#79 = ORIENTED_EDGE ( 'NONE', *, *, #131, .F. ) ;
#80 = LINE ( 'NONE', #186, #72 ) ;
#81 = AXIS2_PLACEMENT_3D ( 'NONE', #110, #88, #44 ) ;
#82 = ORIENTED_EDGE ( 'NONE', *, *, #114, .T. ) ;
#83 = ORIENTED_EDGE ( 'NONE', *, *, #105, .F. ) ;
#84 = DIRECTION ( 'NONE',  ( 0.0000000000000000000, 0.0000000000000000000, -1.000000000000000000 ) ) ;
#85 = SURFACE_STYLE_USAGE ( .BOTH. , #208 ) ;
#86 = FACE_OUTER_BOUND ( 'NONE', #199, .T. ) ;
#87 = CARTESIAN_POINT ( 'NONE',  ( 9.714451465470119700E-014, 14.99999999999998600, 0.0000000000000000000 ) ) ;
#88 = DIRECTION ( 'NONE',  ( -0.0000000000000000000, 1.000000000000000000, 0.0000000000000000000 ) ) ;
#89 = VECTOR ( 'NONE', #125, 1000.000000000000000 ) ;
#90 = ORIENTED_EDGE ( 'NONE', *, *, #129, .T. ) ;
#91 = MECHANICAL_DESIGN_GEOMETRIC_PRESENTATION_REPRESENTATION (  '', ( #95 ), #123 ) ;
#92 = PRODUCT_DEFINITION_FORMATION_WITH_SPECIFIED_SOURCE ( 'ANY', '', #53, .NOT_KNOWN. ) ;
#93 = UNCERTAINTY_MEASURE_WITH_UNIT (LENGTH_MEASURE( 1.000000000000000100E-005 ), #7, 'distance_accuracy_value', 'NONE');
#94 = PRODUCT_DEFINITION ( 'UNKNOWN', '', #92, #122 ) ;
#95 = STYLED_ITEM ( 'NONE', ( #190 ), #182 ) ;
#96 = AXIS2_PLACEMENT_3D ( 'NONE', #30, #138, #40 ) ;
#97 = PRODUCT_RELATED_PRODUCT_CATEGORY ( 'part', '', ( #53 ) ) ;
#98 =( GEOMETRIC_REPRESENTATION_CONTEXT ( 3 ) GLOBAL_UNCERTAINTY_ASSIGNED_CONTEXT ( ( #68 ) ) GLOBAL_UNIT_ASSIGNED_CONTEXT ( ( #119, #28, #134 ) ) REPRESENTATION_CONTEXT ( 'NONE', 'WORKASPACE' ) );
#99 = MANIFOLD_SOLID_BREP ( 'Revolve1', #169 ) ;
#100 = CYLINDRICAL_SURFACE ( 'NONE', #192, 32.99999999999986500 ) ;
#101 = SURFACE_SIDE_STYLE ('',( #201 ) ) ;
#102 = CARTESIAN_POINT ( 'NONE',  ( 9.714451465470119700E-014, 14.99999999999998600, -50.99999999999978000 ) ) ;
#103 = FACE_OUTER_BOUND ( 'NONE', #163, .T. ) ;
#104 =( NAMED_UNIT ( * ) PLANE_ANGLE_UNIT ( ) SI_UNIT ( $, .RADIAN. ) );
#105 = EDGE_CURVE ( 'NONE', #206, #74, #20, .T. ) ;
#106 = MECHANICAL_DESIGN_GEOMETRIC_PRESENTATION_REPRESENTATION (  '', ( #112 ), #98 ) ;
#107 = EDGE_CURVE ( 'NONE', #64, #160, #194, .T. ) ;
#108 = DIRECTION ( 'NONE',  ( 0.0000000000000000000, 0.0000000000000000000, -1.000000000000000000 ) ) ;
#109 = ADVANCED_FACE ( 'NONE', ( #86 ), #27, .T. ) ;
#110 = CARTESIAN_POINT ( 'NONE',  ( 50.99999999999987900, 14.99999999999998600, 0.0000000000000000000 ) ) ;
#111 = CARTESIAN_POINT ( 'NONE',  ( 9.714451465470119700E-014, 14.99999999999998600, -32.99999999999986500 ) ) ;
#112 = STYLED_ITEM ( 'NONE', ( #153 ), #99 ) ;
#113 = CARTESIAN_POINT ( 'NONE',  ( 1.011858490918874400E-013, 14.99999999999998600, 32.99999999999986500 ) ) ;
#114 = EDGE_CURVE ( 'NONE', #200, #209, #145, .T. ) ;
#115 = EDGE_CURVE ( 'NONE', #74, #200, #11, .T. ) ;
#116 = DIRECTION ( 'NONE',  ( 0.0000000000000000000, -1.000000000000000000, 0.0000000000000000000 ) ) ;
#117 = EDGE_CURVE ( 'NONE', #209, #200, #55, .T. ) ;
#118 = EDGE_CURVE ( 'NONE', #207, #15, #120, .T. ) ;
#119 =( LENGTH_UNIT ( ) NAMED_UNIT ( * ) SI_UNIT ( .MILLI., .METRE. ) );
#120 = CIRCLE ( 'NONE', #135, 50.99999999999978000 ) ;
#121 =( LENGTH_UNIT ( ) NAMED_UNIT ( * ) SI_UNIT ( .MILLI., .METRE. ) );
#122 = PRODUCT_DEFINITION_CONTEXT ( 'detailed design', #173, 'design' ) ;
#123 =( GEOMETRIC_REPRESENTATION_CONTEXT ( 3 ) GLOBAL_UNCERTAINTY_ASSIGNED_CONTEXT ( ( #93 ) ) GLOBAL_UNIT_ASSIGNED_CONTEXT ( ( #7, #104, #19 ) ) REPRESENTATION_CONTEXT ( 'NONE', 'WORKASPACE' ) );
#124 = ORIENTED_EDGE ( 'NONE', *, *, #107, .T. ) ;
#125 = DIRECTION ( 'NONE',  ( 0.0000000000000000000, -1.000000000000000000, 0.0000000000000000000 ) ) ;
#126 = ORIENTED_EDGE ( 'NONE', *, *, #128, .F. ) ;
#127 = ORIENTED_EDGE ( 'NONE', *, *, #131, .T. ) ;
#128 = EDGE_CURVE ( 'NONE', #160, #64, #2, .T. ) ;
#129 = EDGE_CURVE ( 'NONE', #15, #207, #8, .T. ) ;
#130 = DIRECTION ( 'NONE',  ( 0.0000000000000000000, -1.000000000000000000, 0.0000000000000000000 ) ) ;
#131 = EDGE_CURVE ( 'NONE', #207, #160, #5, .T. ) ;
#132 = EDGE_CURVE ( 'NONE', #74, #206, #140, .T. ) ;
#133 = CARTESIAN_POINT ( 'NONE',  ( 1.033902133303526800E-013, 14.99999999999998600, 50.99999999999978000 ) ) ;
#134 =( NAMED_UNIT ( * ) SI_UNIT ( $, .STERADIAN. ) SOLID_ANGLE_UNIT ( ) );
#135 = AXIS2_PLACEMENT_3D ( 'NONE', #87, #12, #108 ) ;
#136 =( NAMED_UNIT ( * ) SI_UNIT ( $, .STERADIAN. ) SOLID_ANGLE_UNIT ( ) );
#137 = SHAPE_DEFINITION_REPRESENTATION ( #9, #182 ) ;
#138 = DIRECTION ( 'NONE',  ( 0.0000000000000000000, 0.0000000000000000000, 1.000000000000000000 ) ) ;
#139 = ORIENTED_EDGE ( 'NONE', *, *, #129, .F. ) ;
#140 = CIRCLE ( 'NONE', #144, 32.99999999999986500 ) ;
#141 = DIRECTION ( 'NONE',  ( 0.0000000000000000000, -1.000000000000000000, 0.0000000000000000000 ) ) ;
#142 = DIRECTION ( 'NONE',  ( 0.0000000000000000000, -1.000000000000000000, 0.0000000000000000000 ) ) ;
#143 = CARTESIAN_POINT ( 'NONE',  ( 9.714451465470119700E-014, 0.0000000000000000000, 0.0000000000000000000 ) ) ;
#144 = AXIS2_PLACEMENT_3D ( 'NONE', #31, #141, #42 ) ;
#145 = CIRCLE ( 'NONE', #148, 32.99999999999986500 ) ;
#146 = ORIENTED_EDGE ( 'NONE', *, *, #114, .F. ) ;
#147 = DIRECTION ( 'NONE',  ( 0.0000000000000000000, -1.000000000000000000, 0.0000000000000000000 ) ) ;
#148 = AXIS2_PLACEMENT_3D ( 'NONE', #25, #130, #37 ) ;
#149 = AXIS2_PLACEMENT_3D ( 'NONE', #170, #147, #1 ) ;
#150 = EDGE_CURVE ( 'NONE', #206, #209, #151, .T. ) ;
#151 = LINE ( 'NONE', #111, #89 ) ;
#152 = DIRECTION ( 'NONE',  ( 0.0000000000000000000, 0.0000000000000000000, -1.000000000000000000 ) ) ;
#153 = PRESENTATION_STYLE_ASSIGNMENT (( #17 ) ) ;
#154 = APPLICATION_PROTOCOL_DEFINITION ( 'draft international standard', 'automotive_design', 1998, #180 ) ;
#155 = PRODUCT_CONTEXT ( 'NONE', #180, 'mechanical' ) ;
#156 = PRESENTATION_LAYER_ASSIGNMENT (  '', '', ( #112 ) ) ;
#157 = DIRECTION ( 'NONE',  ( 0.0000000000000000000, -1.000000000000000000, 0.0000000000000000000 ) ) ;
#158 = DIRECTION ( 'NONE',  ( 0.0000000000000000000, 0.0000000000000000000, -1.000000000000000000 ) ) ;
#159 = CARTESIAN_POINT ( 'NONE',  ( 9.714451465470119700E-014, 0.0000000000000000000, -50.99999999999978000 ) ) ;
#160 = VERTEX_POINT ( 'NONE', #159 ) ;
#161 = AXIS2_PLACEMENT_3D ( 'NONE', #6, #203, #36 ) ;
#162 = DIRECTION ( 'NONE',  ( 0.0000000000000000000, 0.0000000000000000000, -1.000000000000000000 ) ) ;
#163 = EDGE_LOOP ( 'NONE', ( #51, #124 ) ) ;
#164 = AXIS2_PLACEMENT_3D ( 'NONE', #75, #210, #185 ) ;
#165 = AXIS2_PLACEMENT_3D ( 'NONE', #63, #204, #84 ) ;
#166 = AXIS2_PLACEMENT_3D ( 'NONE', #143, #45, #162 ) ;
#167 = ORIENTED_EDGE ( 'NONE', *, *, #117, .F. ) ;
#168 = EDGE_LOOP ( 'NONE', ( #59, #139 ) ) ;
#169 = CLOSED_SHELL ( 'NONE', ( #38, #109, #187, #195, #73, #14 ) ) ;
#170 = CARTESIAN_POINT ( 'NONE',  ( 32.99999999999995700, 5.673616633877655900E-045, 0.0000000000000000000 ) ) ;
#171 = AXIS2_PLACEMENT_3D ( 'NONE', #189, #71, #214 ) ;
#172 = AXIS2_PLACEMENT_3D ( 'NONE', #70, #13, #158 ) ;
#173 = APPLICATION_CONTEXT ( 'automotive_design' ) ;
#174 = FACE_OUTER_BOUND ( 'NONE', #34, .T. ) ;
#175 = ORIENTED_EDGE ( 'NONE', *, *, #179, .F. ) ;
#176 = PRESENTATION_LAYER_ASSIGNMENT (  '', '', ( #95 ) ) ;
#177 = CARTESIAN_POINT ( 'NONE',  ( 1.011858490918874400E-013, 14.99999999999998600, 32.99999999999986500 ) ) ;
#178 = CYLINDRICAL_SURFACE ( 'NONE', #77, 32.99999999999986500 ) ;
#179 = EDGE_CURVE ( 'NONE', #15, #64, #80, .T. ) ;
#180 = APPLICATION_CONTEXT ( 'automotive_design' ) ;
#181 = FACE_OUTER_BOUND ( 'NONE', #202, .T. ) ;
#182 = ADVANCED_BREP_SHAPE_REPRESENTATION ( 'TOR254', ( #99, #96 ), #69 ) ;
#183 = ORIENTED_EDGE ( 'NONE', *, *, #132, .T. ) ;
#184 = FACE_BOUND ( 'NONE', #21, .T. ) ;
#185 = DIRECTION ( 'NONE',  ( 0.0000000000000000000, 0.0000000000000000000, -1.000000000000000000 ) ) ;
#186 = CARTESIAN_POINT ( 'NONE',  ( 1.033902133303526800E-013, 14.99999999999998600, 50.99999999999978000 ) ) ;
#187 = ADVANCED_FACE ( 'NONE', ( #54 ), #62, .T. ) ;
#188 = SURFACE_STYLE_FILL_AREA ( #65 ) ;
#189 = CARTESIAN_POINT ( 'NONE',  ( 9.714451465470119700E-014, 14.99999999999998600, 0.0000000000000000000 ) ) ;
#190 = PRESENTATION_STYLE_ASSIGNMENT (( #85 ) ) ;
#191 = CARTESIAN_POINT ( 'NONE',  ( 9.714451465470119700E-014, 14.99999999999998600, -32.99999999999986500 ) ) ;
#192 = AXIS2_PLACEMENT_3D ( 'NONE', #60, #157, #152 ) ;
#193 = DIRECTION ( 'NONE',  ( 0.0000000000000000000, -1.000000000000000000, 0.0000000000000000000 ) ) ;
#194 = CIRCLE ( 'NONE', #166, 50.99999999999978000 ) ;
#195 = ADVANCED_FACE ( 'NONE', ( #41, #67 ), #33, .T. ) ;
#196 = ORIENTED_EDGE ( 'NONE', *, *, #132, .F. ) ;
#197 = PLANE ( 'NONE',  #149 ) ;
#198 = DIRECTION ( 'NONE',  ( 0.0000000000000000000, 0.0000000000000000000, -1.000000000000000000 ) ) ;
#199 = EDGE_LOOP ( 'NONE', ( #16, #35, #126, #79 ) ) ;
#200 = VERTEX_POINT ( 'NONE', #23 ) ;
#201 = SURFACE_STYLE_FILL_AREA ( #4 ) ;
#202 = EDGE_LOOP ( 'NONE', ( #48, #83, #10, #49 ) ) ;
#203 = DIRECTION ( 'NONE',  ( 0.0000000000000000000, -1.000000000000000000, 0.0000000000000000000 ) ) ;
#204 = DIRECTION ( 'NONE',  ( 0.0000000000000000000, -1.000000000000000000, 0.0000000000000000000 ) ) ;
#205 = AXIS2_PLACEMENT_3D ( 'NONE', #32, #142, #43 ) ;
#206 = VERTEX_POINT ( 'NONE', #191 ) ;
#207 = VERTEX_POINT ( 'NONE', #102 ) ;
#208 = SURFACE_SIDE_STYLE ('',( #188 ) ) ;
#209 = VERTEX_POINT ( 'NONE', #18 ) ;
#210 = DIRECTION ( 'NONE',  ( 0.0000000000000000000, -1.000000000000000000, 0.0000000000000000000 ) ) ;
#211 = EDGE_LOOP ( 'NONE', ( #26, #183 ) ) ;
#212 = DIRECTION ( 'NONE',  ( 0.0000000000000000000, -1.000000000000000000, 0.0000000000000000000 ) ) ;
#213 = COLOUR_RGB ( '',0.7921568627450980000, 0.8196078431372548800, 0.9333333333333333500 ) ;
#214 = DIRECTION ( 'NONE',  ( 0.0000000000000000000, 0.0000000000000000000, -1.000000000000000000 ) ) ;
ENDSEC;
END-ISO-10303-21;
