ISO-10303-21;
HEADER;
/* Generated by software containing ST-Developer
 * from STEP Tools, Inc. (www.steptools.com) 
 */
/* OPTION: strings as raw bytes, not using required /X/ escapes */

FILE_DESCRIPTION(
/* description */ (''),
/* implementation_level */ '2;1');

FILE_NAME(
/* name */ 'V3E1_3A_fig',
/* time_stamp */ '2017-05-15T12:07:32+02:00',
/* author */ ('GDA'),
/* organization */ ('MD Microdetectors'),
/* preprocessor_version */ 'ST-DEVELOPER v16.7',
/* originating_system */ 'DEX',
/* authorisation */ $);

FILE_SCHEMA (('AUTOMOTIVE_DESIGN {1 0 10303 214 3 1 1}'));
ENDSEC;

DATA;
#10=PROPERTY_DEFINITION_REPRESENTATION(#14,#12);
#11=PROPERTY_DEFINITION_REPRESENTATION(#15,#13);
#12=REPRESENTATION('',(#16),#505);
#13=REPRESENTATION('',(#17),#505);
#14=PROPERTY_DEFINITION('pmi validation property','',#510);
#15=PROPERTY_DEFINITION('pmi validation property','',#510);
#16=VALUE_REPRESENTATION_ITEM('number of annotations',COUNT_MEASURE(0.));
#17=VALUE_REPRESENTATION_ITEM('number of views',COUNT_MEASURE(0.));
#18=SHAPE_REPRESENTATION_RELATIONSHIP('','',#336,#19);
#19=ADVANCED_BREP_SHAPE_REPRESENTATION('',(#334),#505);
#20=DRAUGHTING_PRE_DEFINED_COLOUR('white');
#21=CONICAL_SURFACE('',#353,3.50000000000001,0.785398163397448);
#22=CONICAL_SURFACE('',#368,4.00000000000001,0.785398163397448);
#23=CONICAL_SURFACE('',#369,3.,0.785398163397452);
#24=LINE('',#468,#26);
#25=LINE('',#478,#27);
#26=VECTOR('',#398,1000.);
#27=VECTOR('',#399,1000.);
#28=B_SPLINE_CURVE_WITH_KNOTS('',3,(#459,#460,#461,#462,#463,#464,#465),
 .UNSPECIFIED.,.F.,.F.,(4,1,1,1,4),(0.,0.00111901311516602,0.00223802623033204,
0.00335703934549806,0.00447605246066407),.UNSPECIFIED.);
#29=B_SPLINE_CURVE_WITH_KNOTS('',3,(#470,#471,#472,#473,#474,#475,#476),
 .UNSPECIFIED.,.F.,.F.,(4,1,1,1,4),(0.,0.00111901311516602,0.00223802623033204,
0.00335703934549806,0.00447605246066407),.UNSPECIFIED.);
#30=TOROIDAL_SURFACE('',#343,3.15,0.1);
#31=PLANE('',#341);
#32=PLANE('',#347);
#33=PLANE('',#351);
#34=PLANE('',#356);
#35=PLANE('',#360);
#36=PLANE('',#366);
#37=ORIENTED_EDGE('',*,*,#75,.T.);
#38=ORIENTED_EDGE('',*,*,#76,.T.);
#39=ORIENTED_EDGE('',*,*,#77,.T.);
#40=ORIENTED_EDGE('',*,*,#75,.F.);
#41=ORIENTED_EDGE('',*,*,#77,.F.);
#42=ORIENTED_EDGE('',*,*,#78,.T.);
#43=ORIENTED_EDGE('',*,*,#79,.F.);
#44=ORIENTED_EDGE('',*,*,#79,.T.);
#45=ORIENTED_EDGE('',*,*,#80,.T.);
#46=ORIENTED_EDGE('',*,*,#81,.T.);
#47=ORIENTED_EDGE('',*,*,#82,.F.);
#48=ORIENTED_EDGE('',*,*,#83,.F.);
#49=ORIENTED_EDGE('',*,*,#84,.F.);
#50=ORIENTED_EDGE('',*,*,#85,.F.);
#51=ORIENTED_EDGE('',*,*,#76,.F.);
#52=ORIENTED_EDGE('',*,*,#86,.T.);
#53=ORIENTED_EDGE('',*,*,#81,.F.);
#54=ORIENTED_EDGE('',*,*,#86,.F.);
#55=ORIENTED_EDGE('',*,*,#87,.F.);
#56=ORIENTED_EDGE('',*,*,#82,.T.);
#57=ORIENTED_EDGE('',*,*,#83,.T.);
#58=ORIENTED_EDGE('',*,*,#87,.T.);
#59=ORIENTED_EDGE('',*,*,#85,.T.);
#60=ORIENTED_EDGE('',*,*,#88,.T.);
#61=ORIENTED_EDGE('',*,*,#89,.T.);
#62=ORIENTED_EDGE('',*,*,#88,.F.);
#63=ORIENTED_EDGE('',*,*,#84,.T.);
#64=ORIENTED_EDGE('',*,*,#90,.T.);
#65=ORIENTED_EDGE('',*,*,#90,.F.);
#66=ORIENTED_EDGE('',*,*,#89,.F.);
#67=ORIENTED_EDGE('',*,*,#91,.T.);
#68=ORIENTED_EDGE('',*,*,#92,.F.);
#69=ORIENTED_EDGE('',*,*,#78,.F.);
#70=ORIENTED_EDGE('',*,*,#93,.T.);
#71=ORIENTED_EDGE('',*,*,#92,.T.);
#72=ORIENTED_EDGE('',*,*,#80,.F.);
#73=ORIENTED_EDGE('',*,*,#93,.F.);
#74=ORIENTED_EDGE('',*,*,#91,.F.);
#75=EDGE_CURVE('',#94,#94,#111,.F.);
#76=EDGE_CURVE('',#95,#95,#112,.T.);
#77=EDGE_CURVE('',#96,#96,#113,.T.);
#78=EDGE_CURVE('',#97,#97,#114,.T.);
#79=EDGE_CURVE('',#98,#98,#115,.T.);
#80=EDGE_CURVE('',#99,#99,#116,.F.);
#81=EDGE_CURVE('',#100,#100,#117,.F.);
#82=EDGE_CURVE('',#101,#102,#28,.T.);
#83=EDGE_CURVE('',#103,#101,#24,.F.);
#84=EDGE_CURVE('',#104,#103,#29,.T.);
#85=EDGE_CURVE('',#102,#104,#25,.T.);
#86=EDGE_CURVE('',#105,#105,#118,.T.);
#87=EDGE_CURVE('',#101,#102,#119,.T.);
#88=EDGE_CURVE('',#104,#103,#120,.T.);
#89=EDGE_CURVE('',#106,#106,#121,.T.);
#90=EDGE_CURVE('',#107,#107,#122,.T.);
#91=EDGE_CURVE('',#108,#108,#123,.F.);
#92=EDGE_CURVE('',#109,#109,#124,.T.);
#93=EDGE_CURVE('',#110,#110,#125,.T.);
#94=VERTEX_POINT('',#441);
#95=VERTEX_POINT('',#443);
#96=VERTEX_POINT('',#446);
#97=VERTEX_POINT('',#450);
#98=VERTEX_POINT('',#452);
#99=VERTEX_POINT('',#456);
#100=VERTEX_POINT('',#458);
#101=VERTEX_POINT('',#466);
#102=VERTEX_POINT('',#467);
#103=VERTEX_POINT('',#469);
#104=VERTEX_POINT('',#477);
#105=VERTEX_POINT('',#481);
#106=VERTEX_POINT('',#488);
#107=VERTEX_POINT('',#492);
#108=VERTEX_POINT('',#496);
#109=VERTEX_POINT('',#498);
#110=VERTEX_POINT('',#501);
#111=CIRCLE('',#339,3.25);
#112=CIRCLE('',#340,3.25);
#113=CIRCLE('',#342,3.15);
#114=CIRCLE('',#345,2.35);
#115=CIRCLE('',#346,2.35);
#116=CIRCLE('',#349,4.00000000000001);
#117=CIRCLE('',#350,4.00000000000001);
#118=CIRCLE('',#352,3.50000000000001);
#119=CIRCLE('',#355,1.9);
#120=CIRCLE('',#357,1.9);
#121=CIRCLE('',#358,1.3);
#122=CIRCLE('',#361,1.3);
#123=CIRCLE('',#364,3.);
#124=CIRCLE('',#365,3.);
#125=CIRCLE('',#367,2.8);
#126=EDGE_LOOP('',(#37));
#127=EDGE_LOOP('',(#38));
#128=EDGE_LOOP('',(#39));
#129=EDGE_LOOP('',(#40));
#130=EDGE_LOOP('',(#41));
#131=EDGE_LOOP('',(#42));
#132=EDGE_LOOP('',(#43));
#133=EDGE_LOOP('',(#44));
#134=EDGE_LOOP('',(#45));
#135=EDGE_LOOP('',(#46));
#136=EDGE_LOOP('',(#47,#48,#49,#50));
#137=EDGE_LOOP('',(#51));
#138=EDGE_LOOP('',(#52));
#139=EDGE_LOOP('',(#53));
#140=EDGE_LOOP('',(#54));
#141=EDGE_LOOP('',(#55,#56));
#142=EDGE_LOOP('',(#57,#58,#59,#60));
#143=EDGE_LOOP('',(#61));
#144=EDGE_LOOP('',(#62,#63));
#145=EDGE_LOOP('',(#64));
#146=EDGE_LOOP('',(#65));
#147=EDGE_LOOP('',(#66));
#148=EDGE_LOOP('',(#67));
#149=EDGE_LOOP('',(#68));
#150=EDGE_LOOP('',(#69));
#151=EDGE_LOOP('',(#70));
#152=EDGE_LOOP('',(#71));
#153=EDGE_LOOP('',(#72));
#154=EDGE_LOOP('',(#73));
#155=EDGE_LOOP('',(#74));
#156=FACE_BOUND('',#126,.T.);
#157=FACE_BOUND('',#127,.T.);
#158=FACE_BOUND('',#128,.T.);
#159=FACE_BOUND('',#129,.T.);
#160=FACE_BOUND('',#130,.T.);
#161=FACE_BOUND('',#131,.T.);
#162=FACE_BOUND('',#132,.T.);
#163=FACE_BOUND('',#133,.T.);
#164=FACE_BOUND('',#134,.T.);
#165=FACE_BOUND('',#135,.T.);
#166=FACE_BOUND('',#136,.T.);
#167=FACE_BOUND('',#137,.T.);
#168=FACE_BOUND('',#138,.T.);
#169=FACE_BOUND('',#139,.T.);
#170=FACE_BOUND('',#140,.T.);
#171=FACE_BOUND('',#141,.T.);
#172=FACE_BOUND('',#142,.T.);
#173=FACE_BOUND('',#143,.T.);
#174=FACE_BOUND('',#144,.T.);
#175=FACE_BOUND('',#145,.T.);
#176=FACE_BOUND('',#146,.T.);
#177=FACE_BOUND('',#147,.T.);
#178=FACE_BOUND('',#148,.T.);
#179=FACE_BOUND('',#149,.T.);
#180=FACE_BOUND('',#150,.T.);
#181=FACE_BOUND('',#151,.T.);
#182=FACE_BOUND('',#152,.T.);
#183=FACE_BOUND('',#153,.T.);
#184=FACE_BOUND('',#154,.T.);
#185=FACE_BOUND('',#155,.T.);
#186=CYLINDRICAL_SURFACE('',#338,3.25);
#187=CYLINDRICAL_SURFACE('',#344,2.35);
#188=CYLINDRICAL_SURFACE('',#348,4.00000000000001);
#189=CYLINDRICAL_SURFACE('',#354,1.9);
#190=CYLINDRICAL_SURFACE('',#359,1.9);
#191=CYLINDRICAL_SURFACE('',#362,1.3);
#192=CYLINDRICAL_SURFACE('',#363,3.);
#193=STYLED_ITEM('',(#210),#316);
#194=STYLED_ITEM('',(#211),#317);
#195=STYLED_ITEM('',(#212),#318);
#196=STYLED_ITEM('',(#213),#319);
#197=STYLED_ITEM('',(#214),#320);
#198=STYLED_ITEM('',(#215),#321);
#199=STYLED_ITEM('',(#216),#322);
#200=STYLED_ITEM('',(#217),#323);
#201=STYLED_ITEM('',(#218),#324);
#202=STYLED_ITEM('',(#219),#325);
#203=STYLED_ITEM('',(#220),#326);
#204=STYLED_ITEM('',(#221),#327);
#205=STYLED_ITEM('',(#222),#328);
#206=STYLED_ITEM('',(#223),#329);
#207=STYLED_ITEM('',(#224),#330);
#208=STYLED_ITEM('',(#225),#331);
#209=STYLED_ITEM('',(#226),#332);
#210=PRESENTATION_STYLE_ASSIGNMENT((#227));
#211=PRESENTATION_STYLE_ASSIGNMENT((#228));
#212=PRESENTATION_STYLE_ASSIGNMENT((#229));
#213=PRESENTATION_STYLE_ASSIGNMENT((#230));
#214=PRESENTATION_STYLE_ASSIGNMENT((#231));
#215=PRESENTATION_STYLE_ASSIGNMENT((#232));
#216=PRESENTATION_STYLE_ASSIGNMENT((#233));
#217=PRESENTATION_STYLE_ASSIGNMENT((#234));
#218=PRESENTATION_STYLE_ASSIGNMENT((#235));
#219=PRESENTATION_STYLE_ASSIGNMENT((#236));
#220=PRESENTATION_STYLE_ASSIGNMENT((#237));
#221=PRESENTATION_STYLE_ASSIGNMENT((#238));
#222=PRESENTATION_STYLE_ASSIGNMENT((#239));
#223=PRESENTATION_STYLE_ASSIGNMENT((#240));
#224=PRESENTATION_STYLE_ASSIGNMENT((#241));
#225=PRESENTATION_STYLE_ASSIGNMENT((#242));
#226=PRESENTATION_STYLE_ASSIGNMENT((#243));
#227=SURFACE_STYLE_USAGE(.BOTH.,#244);
#228=SURFACE_STYLE_USAGE(.BOTH.,#245);
#229=SURFACE_STYLE_USAGE(.BOTH.,#246);
#230=SURFACE_STYLE_USAGE(.BOTH.,#247);
#231=SURFACE_STYLE_USAGE(.BOTH.,#248);
#232=SURFACE_STYLE_USAGE(.BOTH.,#249);
#233=SURFACE_STYLE_USAGE(.BOTH.,#250);
#234=SURFACE_STYLE_USAGE(.BOTH.,#251);
#235=SURFACE_STYLE_USAGE(.BOTH.,#252);
#236=SURFACE_STYLE_USAGE(.BOTH.,#253);
#237=SURFACE_STYLE_USAGE(.BOTH.,#254);
#238=SURFACE_STYLE_USAGE(.BOTH.,#255);
#239=SURFACE_STYLE_USAGE(.BOTH.,#256);
#240=SURFACE_STYLE_USAGE(.BOTH.,#257);
#241=SURFACE_STYLE_USAGE(.BOTH.,#258);
#242=SURFACE_STYLE_USAGE(.BOTH.,#259);
#243=SURFACE_STYLE_USAGE(.BOTH.,#260);
#244=SURFACE_SIDE_STYLE('',(#261));
#245=SURFACE_SIDE_STYLE('',(#262));
#246=SURFACE_SIDE_STYLE('',(#263));
#247=SURFACE_SIDE_STYLE('',(#264));
#248=SURFACE_SIDE_STYLE('',(#265));
#249=SURFACE_SIDE_STYLE('',(#266));
#250=SURFACE_SIDE_STYLE('',(#267));
#251=SURFACE_SIDE_STYLE('',(#268));
#252=SURFACE_SIDE_STYLE('',(#269));
#253=SURFACE_SIDE_STYLE('',(#270));
#254=SURFACE_SIDE_STYLE('',(#271));
#255=SURFACE_SIDE_STYLE('',(#272));
#256=SURFACE_SIDE_STYLE('',(#273));
#257=SURFACE_SIDE_STYLE('',(#274));
#258=SURFACE_SIDE_STYLE('',(#275));
#259=SURFACE_SIDE_STYLE('',(#276));
#260=SURFACE_SIDE_STYLE('',(#277));
#261=SURFACE_STYLE_FILL_AREA(#278);
#262=SURFACE_STYLE_FILL_AREA(#279);
#263=SURFACE_STYLE_FILL_AREA(#280);
#264=SURFACE_STYLE_FILL_AREA(#281);
#265=SURFACE_STYLE_FILL_AREA(#282);
#266=SURFACE_STYLE_FILL_AREA(#283);
#267=SURFACE_STYLE_FILL_AREA(#284);
#268=SURFACE_STYLE_FILL_AREA(#285);
#269=SURFACE_STYLE_FILL_AREA(#286);
#270=SURFACE_STYLE_FILL_AREA(#287);
#271=SURFACE_STYLE_FILL_AREA(#288);
#272=SURFACE_STYLE_FILL_AREA(#289);
#273=SURFACE_STYLE_FILL_AREA(#290);
#274=SURFACE_STYLE_FILL_AREA(#291);
#275=SURFACE_STYLE_FILL_AREA(#292);
#276=SURFACE_STYLE_FILL_AREA(#293);
#277=SURFACE_STYLE_FILL_AREA(#294);
#278=FILL_AREA_STYLE('',(#295));
#279=FILL_AREA_STYLE('',(#296));
#280=FILL_AREA_STYLE('',(#297));
#281=FILL_AREA_STYLE('',(#298));
#282=FILL_AREA_STYLE('',(#299));
#283=FILL_AREA_STYLE('',(#300));
#284=FILL_AREA_STYLE('',(#301));
#285=FILL_AREA_STYLE('',(#302));
#286=FILL_AREA_STYLE('',(#303));
#287=FILL_AREA_STYLE('',(#304));
#288=FILL_AREA_STYLE('',(#305));
#289=FILL_AREA_STYLE('',(#306));
#290=FILL_AREA_STYLE('',(#307));
#291=FILL_AREA_STYLE('',(#308));
#292=FILL_AREA_STYLE('',(#309));
#293=FILL_AREA_STYLE('',(#310));
#294=FILL_AREA_STYLE('',(#311));
#295=FILL_AREA_STYLE_COLOUR('',#312);
#296=FILL_AREA_STYLE_COLOUR('',#312);
#297=FILL_AREA_STYLE_COLOUR('',#312);
#298=FILL_AREA_STYLE_COLOUR('',#313);
#299=FILL_AREA_STYLE_COLOUR('',#313);
#300=FILL_AREA_STYLE_COLOUR('',#314);
#301=FILL_AREA_STYLE_COLOUR('',#315);
#302=FILL_AREA_STYLE_COLOUR('',#315);
#303=FILL_AREA_STYLE_COLOUR('',#20);
#304=FILL_AREA_STYLE_COLOUR('',#20);
#305=FILL_AREA_STYLE_COLOUR('',#20);
#306=FILL_AREA_STYLE_COLOUR('',#20);
#307=FILL_AREA_STYLE_COLOUR('',#20);
#308=FILL_AREA_STYLE_COLOUR('',#20);
#309=FILL_AREA_STYLE_COLOUR('',#315);
#310=FILL_AREA_STYLE_COLOUR('',#20);
#311=FILL_AREA_STYLE_COLOUR('',#20);
#312=COLOUR_RGB('',0.,0.,0.800000011920929);
#313=COLOUR_RGB('',0.800000071525574,0.800000071525574,0.800000011920929);
#314=COLOUR_RGB('',0.1875,0.75,0.581249892711639);
#315=COLOUR_RGB('',0.899999976158142,0.899999976158142,0.899999976158142);
#316=ADVANCED_FACE('',(#156,#157),#186,.T.);
#317=ADVANCED_FACE('',(#158),#31,.T.);
#318=ADVANCED_FACE('',(#159,#160),#30,.T.);
#319=ADVANCED_FACE('',(#161,#162),#187,.T.);
#320=ADVANCED_FACE('',(#163),#32,.T.);
#321=ADVANCED_FACE('',(#164,#165,#166),#188,.T.);
#322=ADVANCED_FACE('',(#167,#168),#33,.T.);
#323=ADVANCED_FACE('',(#169,#170),#21,.T.);
#324=ADVANCED_FACE('',(#171),#189,.F.);
#325=ADVANCED_FACE('',(#172,#173),#34,.F.);
#326=ADVANCED_FACE('',(#174),#190,.F.);
#327=ADVANCED_FACE('',(#175),#35,.F.);
#328=ADVANCED_FACE('',(#176,#177),#191,.F.);
#329=ADVANCED_FACE('',(#178,#179),#192,.T.);
#330=ADVANCED_FACE('',(#180,#181),#36,.T.);
#331=ADVANCED_FACE('',(#182,#183),#22,.T.);
#332=ADVANCED_FACE('',(#184,#185),#23,.T.);
#333=CLOSED_SHELL('',(#316,#317,#318,#319,#320,#321,#322,#323,#324,#325,
#326,#327,#328,#329,#330,#331,#332));
#334=MANIFOLD_SOLID_BREP('',#333);
#335=SHAPE_DEFINITION_REPRESENTATION(#510,#336);
#336=SHAPE_REPRESENTATION('V3E1_3A_fig',(#337),#505);
#337=AXIS2_PLACEMENT_3D('',#438,#370,#371);
#338=AXIS2_PLACEMENT_3D('',#439,#372,#373);
#339=AXIS2_PLACEMENT_3D('',#440,#374,#375);
#340=AXIS2_PLACEMENT_3D('',#442,#376,#377);
#341=AXIS2_PLACEMENT_3D('',#444,#378,#379);
#342=AXIS2_PLACEMENT_3D('',#445,#380,#381);
#343=AXIS2_PLACEMENT_3D('',#447,#382,#383);
#344=AXIS2_PLACEMENT_3D('',#448,#384,#385);
#345=AXIS2_PLACEMENT_3D('',#449,#386,#387);
#346=AXIS2_PLACEMENT_3D('',#451,#388,#389);
#347=AXIS2_PLACEMENT_3D('',#453,#390,#391);
#348=AXIS2_PLACEMENT_3D('',#454,#392,#393);
#349=AXIS2_PLACEMENT_3D('',#455,#394,#395);
#350=AXIS2_PLACEMENT_3D('',#457,#396,#397);
#351=AXIS2_PLACEMENT_3D('',#479,#400,#401);
#352=AXIS2_PLACEMENT_3D('',#480,#402,#403);
#353=AXIS2_PLACEMENT_3D('',#482,#404,#405);
#354=AXIS2_PLACEMENT_3D('',#483,#406,#407);
#355=AXIS2_PLACEMENT_3D('',#484,#408,#409);
#356=AXIS2_PLACEMENT_3D('',#485,#410,#411);
#357=AXIS2_PLACEMENT_3D('',#486,#412,#413);
#358=AXIS2_PLACEMENT_3D('',#487,#414,#415);
#359=AXIS2_PLACEMENT_3D('',#489,#416,#417);
#360=AXIS2_PLACEMENT_3D('',#490,#418,#419);
#361=AXIS2_PLACEMENT_3D('',#491,#420,#421);
#362=AXIS2_PLACEMENT_3D('',#493,#422,#423);
#363=AXIS2_PLACEMENT_3D('',#494,#424,#425);
#364=AXIS2_PLACEMENT_3D('',#495,#426,#427);
#365=AXIS2_PLACEMENT_3D('',#497,#428,#429);
#366=AXIS2_PLACEMENT_3D('',#499,#430,#431);
#367=AXIS2_PLACEMENT_3D('',#500,#432,#433);
#368=AXIS2_PLACEMENT_3D('',#502,#434,#435);
#369=AXIS2_PLACEMENT_3D('',#503,#436,#437);
#370=DIRECTION('',(0.,0.,1.));
#371=DIRECTION('',(1.,0.,0.));
#372=DIRECTION('',(-1.,-1.13396293366252E-16,3.75216611075807E-16));
#373=DIRECTION('',(-1.76211289397783E-16,1.,-1.66533453693773E-16));
#374=DIRECTION('',(-1.,-1.13396293366252E-16,3.75216611075807E-16));
#375=DIRECTION('',(-1.76211289397783E-16,1.,-1.66533453693773E-16));
#376=DIRECTION('',(-1.,-1.13396293366252E-16,3.75216611075807E-16));
#377=DIRECTION('',(-1.76211289397783E-16,1.,-1.66533453693773E-16));
#378=DIRECTION('',(-1.,-1.13396293366252E-16,3.75216611075807E-16));
#379=DIRECTION('',(-1.76211289397783E-16,1.,-1.66533453693773E-16));
#380=DIRECTION('',(-1.,-1.13396293366252E-16,3.75216611075807E-16));
#381=DIRECTION('',(-1.76211289397783E-16,1.,-1.66533453693773E-16));
#382=DIRECTION('',(-1.,-1.13396293366252E-16,3.75216611075807E-16));
#383=DIRECTION('',(-1.76211289397783E-16,1.,-1.66533453693773E-16));
#384=DIRECTION('',(1.,-9.66805901991872E-17,-8.78678010853245E-17));
#385=DIRECTION('',(-1.52191741430445E-16,-1.,1.66533453693773E-16));
#386=DIRECTION('',(1.,-9.66805901991872E-17,-8.78678010853245E-17));
#387=DIRECTION('',(3.56221408764738E-16,3.60822483003176E-16,-1.));
#388=DIRECTION('',(1.,-9.66805901991872E-17,-8.78678010853245E-17));
#389=DIRECTION('',(3.56221408764738E-16,3.60822483003176E-16,-1.));
#390=DIRECTION('',(1.,-9.66805901991872E-17,-8.78678010853245E-17));
#391=DIRECTION('',(-1.52191741430445E-16,-1.,1.66533453693773E-16));
#392=DIRECTION('',(-1.,0.,0.));
#393=DIRECTION('',(0.,0.,1.));
#394=DIRECTION('',(1.,0.,0.));
#395=DIRECTION('',(0.,0.,-1.));
#396=DIRECTION('',(-1.,0.,0.));
#397=DIRECTION('',(0.,0.,1.));
#398=DIRECTION('',(-1.,0.,0.));
#399=DIRECTION('',(-1.,0.,0.));
#400=DIRECTION('',(-1.,0.,0.));
#401=DIRECTION('',(0.,0.,1.));
#402=DIRECTION('',(-1.,0.,0.));
#403=DIRECTION('',(0.,0.,1.));
#404=DIRECTION('',(1.,0.,0.));
#405=DIRECTION('',(0.,0.,-1.));
#406=DIRECTION('',(0.,0.,1.));
#407=DIRECTION('',(0.,1.,0.));
#408=DIRECTION('',(0.,0.,-1.));
#409=DIRECTION('',(0.,1.,0.));
#410=DIRECTION('',(0.,0.,1.));
#411=DIRECTION('',(1.,0.,0.));
#412=DIRECTION('',(0.,0.,-1.));
#413=DIRECTION('',(0.,1.,0.));
#414=DIRECTION('',(0.,0.,1.));
#415=DIRECTION('',(1.,0.,0.));
#416=DIRECTION('',(0.,0.,1.));
#417=DIRECTION('',(0.,1.,0.));
#418=DIRECTION('',(0.,0.,1.));
#419=DIRECTION('',(1.,0.,0.));
#420=DIRECTION('',(0.,0.,-1.));
#421=DIRECTION('',(0.,1.,0.));
#422=DIRECTION('',(0.,0.,1.));
#423=DIRECTION('',(0.,1.,0.));
#424=DIRECTION('',(-1.,0.,0.));
#425=DIRECTION('',(0.,0.,1.));
#426=DIRECTION('',(1.,0.,0.));
#427=DIRECTION('',(0.,0.,-1.));
#428=DIRECTION('',(-1.,0.,0.));
#429=DIRECTION('',(0.,0.,1.));
#430=DIRECTION('',(1.,0.,0.));
#431=DIRECTION('',(0.,0.,-1.));
#432=DIRECTION('',(1.,0.,0.));
#433=DIRECTION('',(0.,0.,-1.));
#434=DIRECTION('',(-1.,0.,0.));
#435=DIRECTION('',(0.,0.,1.));
#436=DIRECTION('',(-1.,0.,0.));
#437=DIRECTION('',(0.,0.,1.));
#438=CARTESIAN_POINT('',(0.,0.,0.));
#439=CARTESIAN_POINT('',(0.15,1.22983193025728E-17,-1.46272517487786E-16));
#440=CARTESIAN_POINT('',(-0.2,-2.73903833756155E-17,-1.49467036112539E-17));
#441=CARTESIAN_POINT('',(-0.2,3.25,-5.56180428116017E-16));
#442=CARTESIAN_POINT('',(1.62630325872826E-16,-4.71112470236503E-18,-8.99900258264152E-17));
#443=CARTESIAN_POINT('',(-4.10056364669969E-16,3.25,-6.31223750331179E-16));
#444=CARTESIAN_POINT('',(-0.3,-3.87300127122408E-17,2.25749574963268E-17));
#445=CARTESIAN_POINT('',(-0.3,-3.87300127122408E-17,2.25749574963268E-17));
#446=CARTESIAN_POINT('',(-0.3,3.15,-5.02005421639059E-16));
#447=CARTESIAN_POINT('',(-0.2,-2.73903833756155E-17,-1.49467036112539E-17));
#448=CARTESIAN_POINT('',(61.6,-5.5511151231258E-16,4.44089209850063E-15));
#449=CARTESIAN_POINT('',(61.6,-5.5511151231258E-16,4.44089209850063E-15));
#450=CARTESIAN_POINT('',(61.6,2.92821322744883E-16,-2.35));
#451=CARTESIAN_POINT('',(101.6,-4.42233512028007E-15,9.2618005508765E-16));
#452=CARTESIAN_POINT('',(101.6,-3.57440228522261E-15,-2.35));
#453=CARTESIAN_POINT('',(101.6,-4.42233512028007E-15,9.2618005508765E-16));
#454=CARTESIAN_POINT('',(-1.22460635382238E-21,0.,0.));
#455=CARTESIAN_POINT('',(54.1,0.,0.));
#456=CARTESIAN_POINT('',(54.1,0.,-4.00000000000001));
#457=CARTESIAN_POINT('',(0.500000000000001,0.,0.));
#458=CARTESIAN_POINT('',(0.500000000000001,0.,4.00000000000001));
#459=CARTESIAN_POINT('',(43.3549834435271,1.74355957741627,-3.60000000000001));
#460=CARTESIAN_POINT('',(43.6961764099432,1.59581868916181,-3.67155417797002));
#461=CARTESIAN_POINT('',(44.2666282393307,1.11861609661105,-3.88273613683986));
#462=CARTESIAN_POINT('',(44.6165025000017,0.00178995748824014,-4.05855358634059));
#463=CARTESIAN_POINT('',(44.2673594207463,-1.11847181223392,-3.88304840633766));
#464=CARTESIAN_POINT('',(43.6963213128433,-1.59575594436553,-3.67158456666182));
#465=CARTESIAN_POINT('',(43.3549834435271,-1.74355957741627,-3.60000000000001));
#466=CARTESIAN_POINT('',(43.3549834435271,1.74355957741627,-3.60000000000001));
#467=CARTESIAN_POINT('',(43.3549834435271,-1.74355957741627,-3.60000000000001));
#468=CARTESIAN_POINT('',(-1.22460635382238E-21,1.74355957741627,-3.60000000000001));
#469=CARTESIAN_POINT('',(41.8450165564729,1.74355957741627,-3.60000000000001));
#470=CARTESIAN_POINT('',(41.8450165564729,-1.74355957741627,-3.60000000000001));
#471=CARTESIAN_POINT('',(41.5038235900568,-1.59581868916181,-3.67155417797002));
#472=CARTESIAN_POINT('',(40.9333717606692,-1.11861609661105,-3.88273613683986));
#473=CARTESIAN_POINT('',(40.5834974999984,-0.00178995748824014,-4.05855358634059));
#474=CARTESIAN_POINT('',(40.9326405792536,1.11847181223392,-3.88304840633766));
#475=CARTESIAN_POINT('',(41.5036786871567,1.59575594436553,-3.67158456666182));
#476=CARTESIAN_POINT('',(41.8450165564729,1.74355957741627,-3.60000000000001));
#477=CARTESIAN_POINT('',(41.8450165564729,-1.74355957741627,-3.60000000000001));
#478=CARTESIAN_POINT('',(-1.22460635382238E-21,-1.74355957741627,-3.60000000000001));
#479=CARTESIAN_POINT('',(9.14814621895844E-16,0.,0.));
#480=CARTESIAN_POINT('',(9.14814621895844E-16,0.,0.));
#481=CARTESIAN_POINT('',(9.14814621895844E-16,0.,3.50000000000001));
#482=CARTESIAN_POINT('',(9.14814621895844E-16,0.,0.));
#483=CARTESIAN_POINT('',(42.6,0.,-4.00000000000001));
#484=CARTESIAN_POINT('',(42.6,0.,-3.60000000000001));
#485=CARTESIAN_POINT('',(42.6,0.,-3.60000000000001));
#486=CARTESIAN_POINT('',(42.6,0.,-3.60000000000001));
#487=CARTESIAN_POINT('',(42.6,0.,-3.60000000000001));
#488=CARTESIAN_POINT('',(43.9,0.,-3.60000000000001));
#489=CARTESIAN_POINT('',(42.6,0.,-4.00000000000001));
#490=CARTESIAN_POINT('',(42.6,0.,-2.5));
#491=CARTESIAN_POINT('',(42.6,0.,-2.5));
#492=CARTESIAN_POINT('',(42.6,1.3,-2.5));
#493=CARTESIAN_POINT('',(42.6,0.,-3.60000000000001));
#494=CARTESIAN_POINT('',(0.,0.,0.));
#495=CARTESIAN_POINT('',(61.4,0.,0.));
#496=CARTESIAN_POINT('',(61.4,0.,-3.));
#497=CARTESIAN_POINT('',(55.1,0.,0.));
#498=CARTESIAN_POINT('',(55.1,0.,3.));
#499=CARTESIAN_POINT('',(61.6,4.00000000000001,0.));
#500=CARTESIAN_POINT('',(61.6,0.,0.));
#501=CARTESIAN_POINT('',(61.6,0.,-2.8));
#502=CARTESIAN_POINT('',(54.1,0.,0.));
#503=CARTESIAN_POINT('',(61.4,0.,0.));
#504=MECHANICAL_DESIGN_GEOMETRIC_PRESENTATION_REPRESENTATION('',(#193,#194,
#195,#196,#197,#198,#199,#200,#201,#202,#203,#204,#205,#206,#207,#208,#209),
#505);
#505=(
GEOMETRIC_REPRESENTATION_CONTEXT(3)
GLOBAL_UNCERTAINTY_ASSIGNED_CONTEXT((#506))
GLOBAL_UNIT_ASSIGNED_CONTEXT((#509,#508,#507))
REPRESENTATION_CONTEXT('V3E1_3A_fig','TOP_LEVEL_ASSEMBLY_PART')
);
#506=UNCERTAINTY_MEASURE_WITH_UNIT(LENGTH_MEASURE(0.005),#509,
'DISTANCE_ACCURACY_VALUE','Maximum Tolerance applied to model');
#507=(
NAMED_UNIT(*)
SI_UNIT($,.STERADIAN.)
SOLID_ANGLE_UNIT()
);
#508=(
NAMED_UNIT(*)
PLANE_ANGLE_UNIT()
SI_UNIT($,.RADIAN.)
);
#509=(
LENGTH_UNIT()
NAMED_UNIT(*)
SI_UNIT(.MILLI.,.METRE.)
);
#510=PRODUCT_DEFINITION_SHAPE('','',#511);
#511=PRODUCT_DEFINITION('','',#513,#512);
#512=PRODUCT_DEFINITION_CONTEXT('',#519,'design');
#513=PRODUCT_DEFINITION_FORMATION_WITH_SPECIFIED_SOURCE('','',#515,
 .NOT_KNOWN.);
#514=PRODUCT_RELATED_PRODUCT_CATEGORY('','',(#515));
#515=PRODUCT('V3E1_3A_fig','V3E1_3A_fig','V3E1_3A_fig',(#517));
#516=PRODUCT_CATEGORY('','');
#517=PRODUCT_CONTEXT('',#519,'mechanical');
#518=APPLICATION_PROTOCOL_DEFINITION('international standard',
'automotive_design',2010,#519);
#519=APPLICATION_CONTEXT(
'core data for automotive mechanical design processes');
ENDSEC;
END-ISO-10303-21;
