ISO-10303-21;
HEADER;
/* Generated by software containing ST-Developer
 * from STEP Tools, Inc. (www.steptools.com) 
 */
/* OPTION: strings as raw bytes, not using required /X/ escapes */

FILE_DESCRIPTION(
/* description */ (''),
/* implementation_level */ '2;1');

FILE_NAME(
/* name */ 'V3K1_3A_fig',
/* time_stamp */ '2017-05-15T14:47:02+02:00',
/* author */ ('GDA'),
/* organization */ ('MD Microdetectors'),
/* preprocessor_version */ 'ST-DEVELOPER v16.7',
/* originating_system */ 'DEX',
/* authorisation */ $);

FILE_SCHEMA (('AUTOMOTIVE_DESIGN {1 0 10303 214 3 1 1}'));
ENDSEC;

DATA;
#10=PROPERTY_DEFINITION_REPRESENTATION(#14,#12);
#11=PROPERTY_DEFINITION_REPRESENTATION(#15,#13);
#12=REPRESENTATION('',(#16),#498);
#13=REPRESENTATION('',(#17),#498);
#14=PROPERTY_DEFINITION('pmi validation property','',#503);
#15=PROPERTY_DEFINITION('pmi validation property','',#503);
#16=VALUE_REPRESENTATION_ITEM('number of annotations',COUNT_MEASURE(0.));
#17=VALUE_REPRESENTATION_ITEM('number of views',COUNT_MEASURE(0.));
#18=SHAPE_REPRESENTATION_RELATIONSHIP('','',#336,#19);
#19=ADVANCED_BREP_SHAPE_REPRESENTATION('',(#334),#498);
#20=B_SPLINE_CURVE_WITH_KNOTS('',3,(#469,#470,#471,#472,#473),
 .UNSPECIFIED.,.F.,.F.,(4,1,4),(0.00104910461425996,0.00475738666700107,
0.00846566871974218),.UNSPECIFIED.);
#21=CONICAL_SURFACE('',#352,6.,1.22173047639603);
#22=CONICAL_SURFACE('',#363,6.,0.785398163397448);
#23=CONICAL_SURFACE('',#364,8.24999999999999,0.785398163397448);
#24=CONICAL_SURFACE('',#369,1.5,0.78539816339745);
#25=LINE('',#456,#28);
#26=LINE('',#461,#29);
#27=LINE('',#492,#30);
#28=VECTOR('',#394,1000.);
#29=VECTOR('',#397,1000.);
#30=VECTOR('',#432,1000.);
#31=TOROIDAL_SURFACE('',#347,8.,0.2);
#32=PLANE('',#341);
#33=PLANE('',#342);
#34=PLANE('',#357);
#35=PLANE('',#361);
#36=PLANE('',#365);
#37=PLANE('',#366);
#38=PLANE('',#367);
#39=ORIENTED_EDGE('',*,*,#77,.T.);
#40=ORIENTED_EDGE('',*,*,#78,.F.);
#41=ORIENTED_EDGE('',*,*,#77,.F.);
#42=ORIENTED_EDGE('',*,*,#79,.T.);
#43=ORIENTED_EDGE('',*,*,#80,.T.);
#44=ORIENTED_EDGE('',*,*,#81,.T.);
#45=ORIENTED_EDGE('',*,*,#80,.F.);
#46=ORIENTED_EDGE('',*,*,#79,.F.);
#47=ORIENTED_EDGE('',*,*,#82,.F.);
#48=ORIENTED_EDGE('',*,*,#83,.T.);
#49=ORIENTED_EDGE('',*,*,#84,.T.);
#50=ORIENTED_EDGE('',*,*,#85,.T.);
#51=ORIENTED_EDGE('',*,*,#86,.T.);
#52=ORIENTED_EDGE('',*,*,#87,.T.);
#53=ORIENTED_EDGE('',*,*,#88,.F.);
#54=ORIENTED_EDGE('',*,*,#85,.F.);
#55=ORIENTED_EDGE('',*,*,#89,.T.);
#56=ORIENTED_EDGE('',*,*,#90,.F.);
#57=ORIENTED_EDGE('',*,*,#81,.F.);
#58=ORIENTED_EDGE('',*,*,#91,.T.);
#59=ORIENTED_EDGE('',*,*,#92,.T.);
#60=ORIENTED_EDGE('',*,*,#87,.F.);
#61=ORIENTED_EDGE('',*,*,#78,.T.);
#62=ORIENTED_EDGE('',*,*,#93,.T.);
#63=ORIENTED_EDGE('',*,*,#93,.F.);
#64=ORIENTED_EDGE('',*,*,#92,.F.);
#65=ORIENTED_EDGE('',*,*,#86,.F.);
#66=ORIENTED_EDGE('',*,*,#91,.F.);
#67=ORIENTED_EDGE('',*,*,#90,.T.);
#68=ORIENTED_EDGE('',*,*,#83,.F.);
#69=ORIENTED_EDGE('',*,*,#94,.F.);
#70=ORIENTED_EDGE('',*,*,#95,.T.);
#71=ORIENTED_EDGE('',*,*,#94,.T.);
#72=ORIENTED_EDGE('',*,*,#82,.T.);
#73=ORIENTED_EDGE('',*,*,#88,.T.);
#74=ORIENTED_EDGE('',*,*,#84,.F.);
#75=ORIENTED_EDGE('',*,*,#89,.F.);
#76=ORIENTED_EDGE('',*,*,#95,.F.);
#77=EDGE_CURVE('',#96,#96,#113,.T.);
#78=EDGE_CURVE('',#97,#97,#114,.T.);
#79=EDGE_CURVE('',#98,#98,#115,.T.);
#80=EDGE_CURVE('',#99,#99,#116,.F.);
#81=EDGE_CURVE('',#100,#100,#117,.T.);
#82=EDGE_CURVE('',#101,#102,#25,.F.);
#83=EDGE_CURVE('',#101,#103,#118,.F.);
#84=EDGE_CURVE('',#103,#104,#26,.F.);
#85=EDGE_CURVE('',#104,#102,#119,.T.);
#86=EDGE_CURVE('',#105,#105,#120,.F.);
#87=EDGE_CURVE('',#106,#106,#121,.T.);
#88=EDGE_CURVE('',#102,#104,#20,.T.);
#89=EDGE_CURVE('',#107,#107,#122,.T.);
#90=EDGE_CURVE('',#108,#108,#123,.T.);
#91=EDGE_CURVE('',#109,#109,#124,.T.);
#92=EDGE_CURVE('',#110,#110,#125,.T.);
#93=EDGE_CURVE('',#111,#111,#126,.F.);
#94=EDGE_CURVE('',#103,#101,#27,.T.);
#95=EDGE_CURVE('',#112,#112,#127,.F.);
#96=VERTEX_POINT('',#442);
#97=VERTEX_POINT('',#444);
#98=VERTEX_POINT('',#448);
#99=VERTEX_POINT('',#451);
#100=VERTEX_POINT('',#453);
#101=VERTEX_POINT('',#457);
#102=VERTEX_POINT('',#458);
#103=VERTEX_POINT('',#460);
#104=VERTEX_POINT('',#462);
#105=VERTEX_POINT('',#465);
#106=VERTEX_POINT('',#468);
#107=VERTEX_POINT('',#476);
#108=VERTEX_POINT('',#478);
#109=VERTEX_POINT('',#481);
#110=VERTEX_POINT('',#484);
#111=VERTEX_POINT('',#487);
#112=VERTEX_POINT('',#495);
#113=CIRCLE('',#339,2.35);
#114=CIRCLE('',#340,2.35);
#115=CIRCLE('',#343,8.);
#116=CIRCLE('',#345,8.2);
#117=CIRCLE('',#346,8.2);
#118=CIRCLE('',#349,8.99999999999999);
#119=CIRCLE('',#350,8.99999999999999);
#120=CIRCLE('',#351,8.99999999999999);
#121=CIRCLE('',#353,6.);
#122=CIRCLE('',#355,1.3);
#123=CIRCLE('',#356,1.3);
#124=CIRCLE('',#358,8.24999999999999);
#125=CIRCLE('',#360,6.);
#126=CIRCLE('',#362,5.25);
#127=CIRCLE('',#368,1.5);
#128=EDGE_LOOP('',(#39));
#129=EDGE_LOOP('',(#40));
#130=EDGE_LOOP('',(#41));
#131=EDGE_LOOP('',(#42));
#132=EDGE_LOOP('',(#43));
#133=EDGE_LOOP('',(#44));
#134=EDGE_LOOP('',(#45));
#135=EDGE_LOOP('',(#46));
#136=EDGE_LOOP('',(#47,#48,#49,#50));
#137=EDGE_LOOP('',(#51));
#138=EDGE_LOOP('',(#52));
#139=EDGE_LOOP('',(#53,#54));
#140=EDGE_LOOP('',(#55));
#141=EDGE_LOOP('',(#56));
#142=EDGE_LOOP('',(#57));
#143=EDGE_LOOP('',(#58));
#144=EDGE_LOOP('',(#59));
#145=EDGE_LOOP('',(#60));
#146=EDGE_LOOP('',(#61));
#147=EDGE_LOOP('',(#62));
#148=EDGE_LOOP('',(#63));
#149=EDGE_LOOP('',(#64));
#150=EDGE_LOOP('',(#65));
#151=EDGE_LOOP('',(#66));
#152=EDGE_LOOP('',(#67));
#153=EDGE_LOOP('',(#68,#69));
#154=EDGE_LOOP('',(#70));
#155=EDGE_LOOP('',(#71,#72,#73,#74));
#156=EDGE_LOOP('',(#75));
#157=EDGE_LOOP('',(#76));
#158=FACE_BOUND('',#128,.T.);
#159=FACE_BOUND('',#129,.T.);
#160=FACE_BOUND('',#130,.T.);
#161=FACE_BOUND('',#131,.T.);
#162=FACE_BOUND('',#132,.T.);
#163=FACE_BOUND('',#133,.T.);
#164=FACE_BOUND('',#134,.T.);
#165=FACE_BOUND('',#135,.T.);
#166=FACE_BOUND('',#136,.T.);
#167=FACE_BOUND('',#137,.T.);
#168=FACE_BOUND('',#138,.T.);
#169=FACE_BOUND('',#139,.T.);
#170=FACE_BOUND('',#140,.T.);
#171=FACE_BOUND('',#141,.T.);
#172=FACE_BOUND('',#142,.T.);
#173=FACE_BOUND('',#143,.T.);
#174=FACE_BOUND('',#144,.T.);
#175=FACE_BOUND('',#145,.T.);
#176=FACE_BOUND('',#146,.T.);
#177=FACE_BOUND('',#147,.T.);
#178=FACE_BOUND('',#148,.T.);
#179=FACE_BOUND('',#149,.T.);
#180=FACE_BOUND('',#150,.T.);
#181=FACE_BOUND('',#151,.T.);
#182=FACE_BOUND('',#152,.T.);
#183=FACE_BOUND('',#153,.T.);
#184=FACE_BOUND('',#154,.T.);
#185=FACE_BOUND('',#155,.T.);
#186=FACE_BOUND('',#156,.T.);
#187=FACE_BOUND('',#157,.T.);
#188=CYLINDRICAL_SURFACE('',#338,2.35);
#189=CYLINDRICAL_SURFACE('',#344,8.2);
#190=CYLINDRICAL_SURFACE('',#348,8.99999999999999);
#191=CYLINDRICAL_SURFACE('',#354,1.3);
#192=CYLINDRICAL_SURFACE('',#359,6.);
#193=STYLED_ITEM('',(#210),#316);
#194=STYLED_ITEM('',(#211),#317);
#195=STYLED_ITEM('',(#212),#318);
#196=STYLED_ITEM('',(#213),#319);
#197=STYLED_ITEM('',(#214),#320);
#198=STYLED_ITEM('',(#215),#321);
#199=STYLED_ITEM('',(#216),#322);
#200=STYLED_ITEM('',(#217),#323);
#201=STYLED_ITEM('',(#218),#324);
#202=STYLED_ITEM('',(#219),#325);
#203=STYLED_ITEM('',(#220),#326);
#204=STYLED_ITEM('',(#221),#327);
#205=STYLED_ITEM('',(#222),#328);
#206=STYLED_ITEM('',(#223),#329);
#207=STYLED_ITEM('',(#224),#330);
#208=STYLED_ITEM('',(#225),#331);
#209=STYLED_ITEM('',(#226),#332);
#210=PRESENTATION_STYLE_ASSIGNMENT((#227));
#211=PRESENTATION_STYLE_ASSIGNMENT((#228));
#212=PRESENTATION_STYLE_ASSIGNMENT((#229));
#213=PRESENTATION_STYLE_ASSIGNMENT((#230));
#214=PRESENTATION_STYLE_ASSIGNMENT((#231));
#215=PRESENTATION_STYLE_ASSIGNMENT((#232));
#216=PRESENTATION_STYLE_ASSIGNMENT((#233));
#217=PRESENTATION_STYLE_ASSIGNMENT((#234));
#218=PRESENTATION_STYLE_ASSIGNMENT((#235));
#219=PRESENTATION_STYLE_ASSIGNMENT((#236));
#220=PRESENTATION_STYLE_ASSIGNMENT((#237));
#221=PRESENTATION_STYLE_ASSIGNMENT((#238));
#222=PRESENTATION_STYLE_ASSIGNMENT((#239));
#223=PRESENTATION_STYLE_ASSIGNMENT((#240));
#224=PRESENTATION_STYLE_ASSIGNMENT((#241));
#225=PRESENTATION_STYLE_ASSIGNMENT((#242));
#226=PRESENTATION_STYLE_ASSIGNMENT((#243));
#227=SURFACE_STYLE_USAGE(.BOTH.,#244);
#228=SURFACE_STYLE_USAGE(.BOTH.,#245);
#229=SURFACE_STYLE_USAGE(.BOTH.,#246);
#230=SURFACE_STYLE_USAGE(.BOTH.,#247);
#231=SURFACE_STYLE_USAGE(.BOTH.,#248);
#232=SURFACE_STYLE_USAGE(.BOTH.,#249);
#233=SURFACE_STYLE_USAGE(.BOTH.,#250);
#234=SURFACE_STYLE_USAGE(.BOTH.,#251);
#235=SURFACE_STYLE_USAGE(.BOTH.,#252);
#236=SURFACE_STYLE_USAGE(.BOTH.,#253);
#237=SURFACE_STYLE_USAGE(.BOTH.,#254);
#238=SURFACE_STYLE_USAGE(.BOTH.,#255);
#239=SURFACE_STYLE_USAGE(.BOTH.,#256);
#240=SURFACE_STYLE_USAGE(.BOTH.,#257);
#241=SURFACE_STYLE_USAGE(.BOTH.,#258);
#242=SURFACE_STYLE_USAGE(.BOTH.,#259);
#243=SURFACE_STYLE_USAGE(.BOTH.,#260);
#244=SURFACE_SIDE_STYLE('',(#261));
#245=SURFACE_SIDE_STYLE('',(#262));
#246=SURFACE_SIDE_STYLE('',(#263));
#247=SURFACE_SIDE_STYLE('',(#264));
#248=SURFACE_SIDE_STYLE('',(#265));
#249=SURFACE_SIDE_STYLE('',(#266));
#250=SURFACE_SIDE_STYLE('',(#267));
#251=SURFACE_SIDE_STYLE('',(#268));
#252=SURFACE_SIDE_STYLE('',(#269));
#253=SURFACE_SIDE_STYLE('',(#270));
#254=SURFACE_SIDE_STYLE('',(#271));
#255=SURFACE_SIDE_STYLE('',(#272));
#256=SURFACE_SIDE_STYLE('',(#273));
#257=SURFACE_SIDE_STYLE('',(#274));
#258=SURFACE_SIDE_STYLE('',(#275));
#259=SURFACE_SIDE_STYLE('',(#276));
#260=SURFACE_SIDE_STYLE('',(#277));
#261=SURFACE_STYLE_FILL_AREA(#278);
#262=SURFACE_STYLE_FILL_AREA(#279);
#263=SURFACE_STYLE_FILL_AREA(#280);
#264=SURFACE_STYLE_FILL_AREA(#281);
#265=SURFACE_STYLE_FILL_AREA(#282);
#266=SURFACE_STYLE_FILL_AREA(#283);
#267=SURFACE_STYLE_FILL_AREA(#284);
#268=SURFACE_STYLE_FILL_AREA(#285);
#269=SURFACE_STYLE_FILL_AREA(#286);
#270=SURFACE_STYLE_FILL_AREA(#287);
#271=SURFACE_STYLE_FILL_AREA(#288);
#272=SURFACE_STYLE_FILL_AREA(#289);
#273=SURFACE_STYLE_FILL_AREA(#290);
#274=SURFACE_STYLE_FILL_AREA(#291);
#275=SURFACE_STYLE_FILL_AREA(#292);
#276=SURFACE_STYLE_FILL_AREA(#293);
#277=SURFACE_STYLE_FILL_AREA(#294);
#278=FILL_AREA_STYLE('',(#295));
#279=FILL_AREA_STYLE('',(#296));
#280=FILL_AREA_STYLE('',(#297));
#281=FILL_AREA_STYLE('',(#298));
#282=FILL_AREA_STYLE('',(#299));
#283=FILL_AREA_STYLE('',(#300));
#284=FILL_AREA_STYLE('',(#301));
#285=FILL_AREA_STYLE('',(#302));
#286=FILL_AREA_STYLE('',(#303));
#287=FILL_AREA_STYLE('',(#304));
#288=FILL_AREA_STYLE('',(#305));
#289=FILL_AREA_STYLE('',(#306));
#290=FILL_AREA_STYLE('',(#307));
#291=FILL_AREA_STYLE('',(#308));
#292=FILL_AREA_STYLE('',(#309));
#293=FILL_AREA_STYLE('',(#310));
#294=FILL_AREA_STYLE('',(#311));
#295=FILL_AREA_STYLE_COLOUR('',#312);
#296=FILL_AREA_STYLE_COLOUR('',#312);
#297=FILL_AREA_STYLE_COLOUR('',#313);
#298=FILL_AREA_STYLE_COLOUR('',#313);
#299=FILL_AREA_STYLE_COLOUR('',#313);
#300=FILL_AREA_STYLE_COLOUR('',#314);
#301=FILL_AREA_STYLE_COLOUR('',#315);
#302=FILL_AREA_STYLE_COLOUR('',#315);
#303=FILL_AREA_STYLE_COLOUR('',#315);
#304=FILL_AREA_STYLE_COLOUR('',#315);
#305=FILL_AREA_STYLE_COLOUR('',#315);
#306=FILL_AREA_STYLE_COLOUR('',#315);
#307=FILL_AREA_STYLE_COLOUR('',#315);
#308=FILL_AREA_STYLE_COLOUR('',#315);
#309=FILL_AREA_STYLE_COLOUR('',#315);
#310=FILL_AREA_STYLE_COLOUR('',#315);
#311=FILL_AREA_STYLE_COLOUR('',#315);
#312=COLOUR_RGB('',0.800000071525574,0.800000071525574,0.800000011920929);
#313=COLOUR_RGB('',0.,0.,0.800000011920929);
#314=COLOUR_RGB('',0.1875,0.75,0.581249892711639);
#315=COLOUR_RGB('',0.899999976158142,0.899999976158142,0.899999976158142);
#316=ADVANCED_FACE('',(#158,#159),#188,.T.);
#317=ADVANCED_FACE('',(#160),#32,.F.);
#318=ADVANCED_FACE('',(#161),#33,.T.);
#319=ADVANCED_FACE('',(#162,#163),#189,.T.);
#320=ADVANCED_FACE('',(#164,#165),#31,.T.);
#321=ADVANCED_FACE('',(#166,#167),#190,.T.);
#322=ADVANCED_FACE('',(#168,#169),#21,.T.);
#323=ADVANCED_FACE('',(#170,#171),#191,.F.);
#324=ADVANCED_FACE('',(#172,#173),#34,.T.);
#325=ADVANCED_FACE('',(#174,#175),#192,.T.);
#326=ADVANCED_FACE('',(#176,#177),#35,.F.);
#327=ADVANCED_FACE('',(#178,#179),#22,.T.);
#328=ADVANCED_FACE('',(#180,#181),#23,.T.);
#329=ADVANCED_FACE('',(#182),#36,.F.);
#330=ADVANCED_FACE('',(#183),#37,.T.);
#331=ADVANCED_FACE('',(#184,#185),#38,.T.);
#332=ADVANCED_FACE('',(#186,#187),#24,.F.);
#333=CLOSED_SHELL('',(#316,#317,#318,#319,#320,#321,#322,#323,#324,#325,
#326,#327,#328,#329,#330,#331,#332));
#334=MANIFOLD_SOLID_BREP('',#333);
#335=SHAPE_DEFINITION_REPRESENTATION(#503,#336);
#336=SHAPE_REPRESENTATION('V3K1_3A_fig',(#337),#498);
#337=AXIS2_PLACEMENT_3D('',#439,#370,#371);
#338=AXIS2_PLACEMENT_3D('',#440,#372,#373);
#339=AXIS2_PLACEMENT_3D('',#441,#374,#375);
#340=AXIS2_PLACEMENT_3D('',#443,#376,#377);
#341=AXIS2_PLACEMENT_3D('',#445,#378,#379);
#342=AXIS2_PLACEMENT_3D('',#446,#380,#381);
#343=AXIS2_PLACEMENT_3D('',#447,#382,#383);
#344=AXIS2_PLACEMENT_3D('',#449,#384,#385);
#345=AXIS2_PLACEMENT_3D('',#450,#386,#387);
#346=AXIS2_PLACEMENT_3D('',#452,#388,#389);
#347=AXIS2_PLACEMENT_3D('',#454,#390,#391);
#348=AXIS2_PLACEMENT_3D('',#455,#392,#393);
#349=AXIS2_PLACEMENT_3D('',#459,#395,#396);
#350=AXIS2_PLACEMENT_3D('',#463,#398,#399);
#351=AXIS2_PLACEMENT_3D('',#464,#400,#401);
#352=AXIS2_PLACEMENT_3D('',#466,#402,#403);
#353=AXIS2_PLACEMENT_3D('',#467,#404,#405);
#354=AXIS2_PLACEMENT_3D('',#474,#406,#407);
#355=AXIS2_PLACEMENT_3D('',#475,#408,#409);
#356=AXIS2_PLACEMENT_3D('',#477,#410,#411);
#357=AXIS2_PLACEMENT_3D('',#479,#412,#413);
#358=AXIS2_PLACEMENT_3D('',#480,#414,#415);
#359=AXIS2_PLACEMENT_3D('',#482,#416,#417);
#360=AXIS2_PLACEMENT_3D('',#483,#418,#419);
#361=AXIS2_PLACEMENT_3D('',#485,#420,#421);
#362=AXIS2_PLACEMENT_3D('',#486,#422,#423);
#363=AXIS2_PLACEMENT_3D('',#488,#424,#425);
#364=AXIS2_PLACEMENT_3D('',#489,#426,#427);
#365=AXIS2_PLACEMENT_3D('',#490,#428,#429);
#366=AXIS2_PLACEMENT_3D('',#491,#430,#431);
#367=AXIS2_PLACEMENT_3D('',#493,#433,#434);
#368=AXIS2_PLACEMENT_3D('',#494,#435,#436);
#369=AXIS2_PLACEMENT_3D('',#496,#437,#438);
#370=DIRECTION('',(0.,0.,1.));
#371=DIRECTION('',(1.,0.,0.));
#372=DIRECTION('',(-1.05242527762881E-17,4.46578328504137E-17,-1.));
#373=DIRECTION('',(1.,2.77555756156289E-17,1.33034103798364E-16));
#374=DIRECTION('',(-1.05242527762881E-17,4.46578328504137E-17,-1.));
#375=DIRECTION('',(-8.32667268468867E-17,-1.,8.8900812591815E-17));
#376=DIRECTION('',(-1.05242527762881E-17,4.46578328504137E-17,-1.));
#377=DIRECTION('',(-8.32667268468867E-17,-1.,8.8900812591815E-17));
#378=DIRECTION('',(-1.05242527762881E-17,4.46578328504137E-17,-1.));
#379=DIRECTION('',(1.,2.77555756156289E-17,1.33034103798364E-16));
#380=DIRECTION('',(-8.83968275369667E-17,4.22874207799669E-16,-1.));
#381=DIRECTION('',(1.,-4.02455846426619E-16,2.36224895585331E-16));
#382=DIRECTION('',(-8.83968275369667E-17,4.22874207799669E-16,-1.));
#383=DIRECTION('',(1.,-4.02455846426619E-16,2.36224895585331E-16));
#384=DIRECTION('',(-8.83968275369667E-17,4.22874207799669E-16,-1.));
#385=DIRECTION('',(1.,-4.02455846426619E-16,2.36224895585331E-16));
#386=DIRECTION('',(-8.83968275369667E-17,4.22874207799669E-16,-1.));
#387=DIRECTION('',(1.,-4.02455846426619E-16,2.36224895585331E-16));
#388=DIRECTION('',(-8.83968275369667E-17,4.22874207799669E-16,-1.));
#389=DIRECTION('',(1.,-4.02455846426619E-16,2.36224895585331E-16));
#390=DIRECTION('',(-8.83968275369667E-17,4.22874207799669E-16,-1.));
#391=DIRECTION('',(1.,-4.02455846426619E-16,2.36224895585331E-16));
#392=DIRECTION('',(0.,0.,-1.));
#393=DIRECTION('',(-1.,0.,0.));
#394=DIRECTION('',(0.,0.,-1.));
#395=DIRECTION('',(0.,0.,1.));
#396=DIRECTION('',(1.,0.,0.));
#397=DIRECTION('',(0.,0.,-1.));
#398=DIRECTION('',(0.,0.,-1.));
#399=DIRECTION('',(-1.,0.,0.));
#400=DIRECTION('',(0.,0.,-1.));
#401=DIRECTION('',(-1.,0.,0.));
#402=DIRECTION('',(0.,0.,-1.));
#403=DIRECTION('',(-1.,0.,0.));
#404=DIRECTION('',(0.,0.,-1.));
#405=DIRECTION('',(1.,0.,0.));
#406=DIRECTION('',(-1.,0.,0.));
#407=DIRECTION('',(0.,0.,-1.));
#408=DIRECTION('',(1.,0.,0.));
#409=DIRECTION('',(0.,0.,-1.));
#410=DIRECTION('',(1.,0.,0.));
#411=DIRECTION('',(0.,0.,-1.));
#412=DIRECTION('',(0.,0.,-1.));
#413=DIRECTION('',(-1.,0.,0.));
#414=DIRECTION('',(0.,0.,-1.));
#415=DIRECTION('',(-1.,0.,0.));
#416=DIRECTION('',(0.,0.,-1.));
#417=DIRECTION('',(-1.,0.,0.));
#418=DIRECTION('',(0.,0.,-1.));
#419=DIRECTION('',(-1.,0.,0.));
#420=DIRECTION('',(0.,0.,-1.));
#421=DIRECTION('',(-1.,0.,0.));
#422=DIRECTION('',(0.,0.,-1.));
#423=DIRECTION('',(-1.,0.,0.));
#424=DIRECTION('',(0.,0.,-1.));
#425=DIRECTION('',(-1.,0.,0.));
#426=DIRECTION('',(0.,0.,1.));
#427=DIRECTION('',(1.,0.,0.));
#428=DIRECTION('',(-1.,0.,0.));
#429=DIRECTION('',(0.,0.,1.));
#430=DIRECTION('',(0.,0.,1.));
#431=DIRECTION('',(1.,0.,0.));
#432=DIRECTION('',(0.,1.,0.));
#433=DIRECTION('',(1.,0.,1.5419764230905E-16));
#434=DIRECTION('',(1.5419764230905E-16,0.,-1.));
#435=DIRECTION('',(1.,0.,1.5419764230905E-16));
#436=DIRECTION('',(1.5419764230905E-16,0.,-1.));
#437=DIRECTION('',(1.,0.,0.));
#438=DIRECTION('',(0.,0.,-1.));
#439=CARTESIAN_POINT('',(0.,0.,0.));
#440=CARTESIAN_POINT('',(4.20970111051522E-16,-1.78631331401655E-15,99.5));
#441=CARTESIAN_POINT('',(4.20970111051522E-16,-1.78631331401655E-15,99.5));
#442=CARTESIAN_POINT('',(2.25293302961338E-16,-2.35,99.5));
#443=CARTESIAN_POINT('',(-1.15555796663234E-30,-1.54074395550979E-30,59.5));
#444=CARTESIAN_POINT('',(-1.95676808090185E-16,-2.35,59.5));
#445=CARTESIAN_POINT('',(4.20970111051522E-16,-1.78631331401655E-15,99.5));
#446=CARTESIAN_POINT('',(-3.62069837819626E-18,2.41666325620759E-17,-0.500000000000002));
#447=CARTESIAN_POINT('',(-3.62069837819626E-18,2.41666325620759E-17,-0.500000000000002));
#448=CARTESIAN_POINT('',(8.,-3.19548013885088E-15,-0.5));
#449=CARTESIAN_POINT('',(-3.62069837819632E-18,2.41666325620762E-17,-0.500000000000003));
#450=CARTESIAN_POINT('',(1.40586671291971E-17,-6.04082089978579E-17,-0.300000000000002));
#451=CARTESIAN_POINT('',(8.2,-3.36054614969614E-15,-0.3));
#452=CARTESIAN_POINT('',(4.05777153902871E-17,-1.87270471337759E-16,-1.19262238973405E-15));
#453=CARTESIAN_POINT('',(8.2,-3.48740841203604E-15,7.44421754065659E-16));
#454=CARTESIAN_POINT('',(1.40586671291971E-17,-6.04082089978579E-17,-0.300000000000002));
#455=CARTESIAN_POINT('',(0.,0.,54.5));
#456=CARTESIAN_POINT('',(8.19999999999999,3.70944739819829,54.5));
#457=CARTESIAN_POINT('',(8.2,3.70944739819828,32.));
#458=CARTESIAN_POINT('',(8.19999999999999,3.70944739819829,53.4080892972014));
#459=CARTESIAN_POINT('',(0.,0.,32.));
#460=CARTESIAN_POINT('',(8.2,-3.70944739819828,32.));
#461=CARTESIAN_POINT('',(8.19999999999999,-3.70944739819829,54.5));
#462=CARTESIAN_POINT('',(8.19999999999999,-3.70944739819829,53.4080892972014));
#463=CARTESIAN_POINT('',(0.,0.,53.4080892972014));
#464=CARTESIAN_POINT('',(0.,0.,0.750000000000001));
#465=CARTESIAN_POINT('',(-8.99999999999999,0.,0.750000000000001));
#466=CARTESIAN_POINT('',(0.,0.,54.5));
#467=CARTESIAN_POINT('',(0.,0.,54.5));
#468=CARTESIAN_POINT('',(6.,0.,54.5));
#469=CARTESIAN_POINT('',(8.19999999999999,3.70944739819829,53.4080892972014));
#470=CARTESIAN_POINT('',(8.19999999999999,2.47815167957641,53.5928012267503));
#471=CARTESIAN_POINT('',(8.19999999999999,0.0129154418904173,53.8052633873177));
#472=CARTESIAN_POINT('',(8.19999999999999,-2.47197210003131,53.5937282518705));
#473=CARTESIAN_POINT('',(8.19999999999999,-3.70944739819829,53.4080892972014));
#474=CARTESIAN_POINT('',(8.99999999999999,0.,34.4));
#475=CARTESIAN_POINT('',(7.99999999999999,0.,34.4));
#476=CARTESIAN_POINT('',(7.99999999999999,0.,33.1));
#477=CARTESIAN_POINT('',(6.99999999999999,0.,34.4));
#478=CARTESIAN_POINT('',(6.99999999999999,0.,33.1));
#479=CARTESIAN_POINT('',(0.,0.,0.));
#480=CARTESIAN_POINT('',(0.,0.,0.));
#481=CARTESIAN_POINT('',(-8.24999999999999,0.,0.));
#482=CARTESIAN_POINT('',(0.,0.,59.5));
#483=CARTESIAN_POINT('',(0.,0.,58.75));
#484=CARTESIAN_POINT('',(-6.,0.,58.75));
#485=CARTESIAN_POINT('',(0.,0.,59.5));
#486=CARTESIAN_POINT('',(0.,0.,59.5));
#487=CARTESIAN_POINT('',(-5.25,0.,59.5));
#488=CARTESIAN_POINT('',(0.,0.,58.75));
#489=CARTESIAN_POINT('',(0.,0.,0.));
#490=CARTESIAN_POINT('',(6.99999999999999,0.,34.4));
#491=CARTESIAN_POINT('',(8.2,-64.7166902738389,32.));
#492=CARTESIAN_POINT('',(8.2,-64.7166902738389,32.));
#493=CARTESIAN_POINT('',(8.19999999999999,-64.7166902738389,54.5));
#494=CARTESIAN_POINT('',(8.2,0.,34.4));
#495=CARTESIAN_POINT('',(8.2,0.,32.9));
#496=CARTESIAN_POINT('',(8.2,0.,34.4));
#497=MECHANICAL_DESIGN_GEOMETRIC_PRESENTATION_REPRESENTATION('',(#193,#194,
#195,#196,#197,#198,#199,#200,#201,#202,#203,#204,#205,#206,#207,#208,#209),
#498);
#498=(
GEOMETRIC_REPRESENTATION_CONTEXT(3)
GLOBAL_UNCERTAINTY_ASSIGNED_CONTEXT((#499))
GLOBAL_UNIT_ASSIGNED_CONTEXT((#502,#501,#500))
REPRESENTATION_CONTEXT('V3K1_3A_fig','TOP_LEVEL_ASSEMBLY_PART')
);
#499=UNCERTAINTY_MEASURE_WITH_UNIT(LENGTH_MEASURE(0.005),#502,
'DISTANCE_ACCURACY_VALUE','Maximum Tolerance applied to model');
#500=(
NAMED_UNIT(*)
SI_UNIT($,.STERADIAN.)
SOLID_ANGLE_UNIT()
);
#501=(
NAMED_UNIT(*)
PLANE_ANGLE_UNIT()
SI_UNIT($,.RADIAN.)
);
#502=(
LENGTH_UNIT()
NAMED_UNIT(*)
SI_UNIT(.MILLI.,.METRE.)
);
#503=PRODUCT_DEFINITION_SHAPE('','',#504);
#504=PRODUCT_DEFINITION('','',#506,#505);
#505=PRODUCT_DEFINITION_CONTEXT('',#512,'design');
#506=PRODUCT_DEFINITION_FORMATION_WITH_SPECIFIED_SOURCE('','',#508,
 .NOT_KNOWN.);
#507=PRODUCT_RELATED_PRODUCT_CATEGORY('','',(#508));
#508=PRODUCT('V3K1_3A_fig','V3K1_3A_fig','V3K1_3A_fig',(#510));
#509=PRODUCT_CATEGORY('','');
#510=PRODUCT_CONTEXT('',#512,'mechanical');
#511=APPLICATION_PROTOCOL_DEFINITION('international standard',
'automotive_design',2010,#512);
#512=APPLICATION_CONTEXT(
'core data for automotive mechanical design processes');
ENDSEC;
END-ISO-10303-21;
