ISO-10303-21;
HEADER;
/* Generated by software containing ST-Developer
 * from STEP Tools, Inc. (www.steptools.com) 
 */
/* OPTION: strings as raw bytes, not using required /X/ escapes */

FILE_DESCRIPTION(
/* description */ (''),
/* implementation_level */ '2;1');

FILE_NAME(
/* name */ 'V3M1_3A_fig',
/* time_stamp */ '2017-05-15T17:23:19+02:00',
/* author */ ('GDA'),
/* organization */ ('MD Microdetectors'),
/* preprocessor_version */ 'ST-DEVELOPER v16.7',
/* originating_system */ 'DEX',
/* authorisation */ $);

FILE_SCHEMA (('AUTOMOTIVE_DESIGN {1 0 10303 214 3 1 1}'));
ENDSEC;

DATA;
#10=PROPERTY_DEFINITION_REPRESENTATION(#14,#12);
#11=PROPERTY_DEFINITION_REPRESENTATION(#15,#13);
#12=REPRESENTATION('',(#16),#558);
#13=REPRESENTATION('',(#17),#558);
#14=PROPERTY_DEFINITION('pmi validation property','',#563);
#15=PROPERTY_DEFINITION('pmi validation property','',#563);
#16=VALUE_REPRESENTATION_ITEM('number of annotations',COUNT_MEASURE(0.));
#17=VALUE_REPRESENTATION_ITEM('number of views',COUNT_MEASURE(0.));
#18=SHAPE_REPRESENTATION_RELATIONSHIP('','',#375,#19);
#19=ADVANCED_BREP_SHAPE_REPRESENTATION('',(#373),#558);
#20=DRAUGHTING_PRE_DEFINED_COLOUR('white');
#21=B_SPLINE_CURVE_WITH_KNOTS('',3,(#512,#513,#514,#515),.UNSPECIFIED.,
 .F.,.F.,(4,4),(0.00407509142298728,0.00697224903537479),.UNSPECIFIED.);
#22=B_SPLINE_CURVE_WITH_KNOTS('',3,(#517,#518,#519,#520),.UNSPECIFIED.,
 .F.,.F.,(4,4),(0.00766652777861596,0.0105748052566569),.UNSPECIFIED.);
#23=CONICAL_SURFACE('',#387,6.,0.78539816339744);
#24=CONICAL_SURFACE('',#399,2.7639702342662,0.349065850398866);
#25=CONICAL_SURFACE('',#404,5.49999999999999,0.785398163397448);
#26=CONICAL_SURFACE('',#408,5.3,0.785398163397444);
#27=CONICAL_SURFACE('',#409,1.5,0.785398163397449);
#28=LINE('',#501,#31);
#29=LINE('',#506,#32);
#30=LINE('',#547,#33);
#31=VECTOR('',#429,1000.);
#32=VECTOR('',#432,1000.);
#33=VECTOR('',#475,1000.);
#34=TOROIDAL_SURFACE('',#382,5.05,0.2);
#35=PLANE('',#380);
#36=PLANE('',#392);
#37=PLANE('',#396);
#38=PLANE('',#401);
#39=PLANE('',#403);
#40=PLANE('',#405);
#41=PLANE('',#406);
#42=PLANE('',#412);
#43=ORIENTED_EDGE('',*,*,#87,.T.);
#44=ORIENTED_EDGE('',*,*,#88,.T.);
#45=ORIENTED_EDGE('',*,*,#89,.T.);
#46=ORIENTED_EDGE('',*,*,#87,.F.);
#47=ORIENTED_EDGE('',*,*,#89,.F.);
#48=ORIENTED_EDGE('',*,*,#90,.F.);
#49=ORIENTED_EDGE('',*,*,#91,.T.);
#50=ORIENTED_EDGE('',*,*,#92,.T.);
#51=ORIENTED_EDGE('',*,*,#93,.T.);
#52=ORIENTED_EDGE('',*,*,#94,.T.);
#53=ORIENTED_EDGE('',*,*,#95,.F.);
#54=ORIENTED_EDGE('',*,*,#93,.F.);
#55=ORIENTED_EDGE('',*,*,#96,.T.);
#56=ORIENTED_EDGE('',*,*,#97,.T.);
#57=ORIENTED_EDGE('',*,*,#98,.T.);
#58=ORIENTED_EDGE('',*,*,#99,.F.);
#59=ORIENTED_EDGE('',*,*,#88,.F.);
#60=ORIENTED_EDGE('',*,*,#100,.T.);
#61=ORIENTED_EDGE('',*,*,#101,.T.);
#62=ORIENTED_EDGE('',*,*,#97,.F.);
#63=ORIENTED_EDGE('',*,*,#102,.T.);
#64=ORIENTED_EDGE('',*,*,#103,.T.);
#65=ORIENTED_EDGE('',*,*,#104,.T.);
#66=ORIENTED_EDGE('',*,*,#103,.F.);
#67=ORIENTED_EDGE('',*,*,#105,.F.);
#68=ORIENTED_EDGE('',*,*,#104,.F.);
#69=ORIENTED_EDGE('',*,*,#99,.T.);
#70=ORIENTED_EDGE('',*,*,#94,.F.);
#71=ORIENTED_EDGE('',*,*,#100,.F.);
#72=ORIENTED_EDGE('',*,*,#91,.F.);
#73=ORIENTED_EDGE('',*,*,#106,.F.);
#74=ORIENTED_EDGE('',*,*,#107,.T.);
#75=ORIENTED_EDGE('',*,*,#106,.T.);
#76=ORIENTED_EDGE('',*,*,#90,.T.);
#77=ORIENTED_EDGE('',*,*,#95,.T.);
#78=ORIENTED_EDGE('',*,*,#96,.F.);
#79=ORIENTED_EDGE('',*,*,#92,.F.);
#80=ORIENTED_EDGE('',*,*,#102,.F.);
#81=ORIENTED_EDGE('',*,*,#101,.F.);
#82=ORIENTED_EDGE('',*,*,#98,.F.);
#83=ORIENTED_EDGE('',*,*,#107,.F.);
#84=ORIENTED_EDGE('',*,*,#105,.T.);
#85=ORIENTED_EDGE('',*,*,#108,.T.);
#86=ORIENTED_EDGE('',*,*,#108,.F.);
#87=EDGE_CURVE('',#109,#109,#128,.T.);
#88=EDGE_CURVE('',#110,#110,#129,.T.);
#89=EDGE_CURVE('',#111,#111,#130,.F.);
#90=EDGE_CURVE('',#112,#113,#28,.F.);
#91=EDGE_CURVE('',#112,#114,#131,.F.);
#92=EDGE_CURVE('',#114,#115,#29,.F.);
#93=EDGE_CURVE('',#115,#113,#132,.T.);
#94=EDGE_CURVE('',#116,#116,#133,.F.);
#95=EDGE_CURVE('',#113,#117,#21,.T.);
#96=EDGE_CURVE('',#115,#117,#22,.T.);
#97=EDGE_CURVE('',#117,#117,#134,.T.);
#98=EDGE_CURVE('',#118,#118,#135,.T.);
#99=EDGE_CURVE('',#119,#119,#136,.T.);
#100=EDGE_CURVE('',#120,#120,#137,.T.);
#101=EDGE_CURVE('',#121,#121,#138,.F.);
#102=EDGE_CURVE('',#122,#122,#139,.T.);
#103=EDGE_CURVE('',#123,#123,#140,.T.);
#104=EDGE_CURVE('',#124,#124,#141,.T.);
#105=EDGE_CURVE('',#125,#125,#142,.T.);
#106=EDGE_CURVE('',#114,#112,#30,.T.);
#107=EDGE_CURVE('',#126,#126,#143,.F.);
#108=EDGE_CURVE('',#127,#127,#144,.T.);
#109=VERTEX_POINT('',#493);
#110=VERTEX_POINT('',#495);
#111=VERTEX_POINT('',#498);
#112=VERTEX_POINT('',#502);
#113=VERTEX_POINT('',#503);
#114=VERTEX_POINT('',#505);
#115=VERTEX_POINT('',#507);
#116=VERTEX_POINT('',#510);
#117=VERTEX_POINT('',#516);
#118=VERTEX_POINT('',#524);
#119=VERTEX_POINT('',#526);
#120=VERTEX_POINT('',#529);
#121=VERTEX_POINT('',#532);
#122=VERTEX_POINT('',#535);
#123=VERTEX_POINT('',#537);
#124=VERTEX_POINT('',#540);
#125=VERTEX_POINT('',#543);
#126=VERTEX_POINT('',#550);
#127=VERTEX_POINT('',#555);
#128=CIRCLE('',#378,5.25);
#129=CIRCLE('',#379,5.25);
#130=CIRCLE('',#381,5.05);
#131=CIRCLE('',#384,5.99999999999999);
#132=CIRCLE('',#385,6.);
#133=CIRCLE('',#386,5.99999999999999);
#134=CIRCLE('',#388,5.3);
#135=CIRCLE('',#390,1.3);
#136=CIRCLE('',#391,1.3);
#137=CIRCLE('',#393,5.49999999999999);
#138=CIRCLE('',#395,5.3);
#139=CIRCLE('',#397,4.60000000000001);
#140=CIRCLE('',#398,2.7639702342662);
#141=CIRCLE('',#400,2.4);
#142=CIRCLE('',#402,2.35);
#143=CIRCLE('',#407,1.5);
#144=CIRCLE('',#411,2.35);
#145=EDGE_LOOP('',(#43));
#146=EDGE_LOOP('',(#44));
#147=EDGE_LOOP('',(#45));
#148=EDGE_LOOP('',(#46));
#149=EDGE_LOOP('',(#47));
#150=EDGE_LOOP('',(#48,#49,#50,#51));
#151=EDGE_LOOP('',(#52));
#152=EDGE_LOOP('',(#53,#54,#55,#56));
#153=EDGE_LOOP('',(#57));
#154=EDGE_LOOP('',(#58));
#155=EDGE_LOOP('',(#59));
#156=EDGE_LOOP('',(#60));
#157=EDGE_LOOP('',(#61));
#158=EDGE_LOOP('',(#62));
#159=EDGE_LOOP('',(#63));
#160=EDGE_LOOP('',(#64));
#161=EDGE_LOOP('',(#65));
#162=EDGE_LOOP('',(#66));
#163=EDGE_LOOP('',(#67));
#164=EDGE_LOOP('',(#68));
#165=EDGE_LOOP('',(#69));
#166=EDGE_LOOP('',(#70));
#167=EDGE_LOOP('',(#71));
#168=EDGE_LOOP('',(#72,#73));
#169=EDGE_LOOP('',(#74));
#170=EDGE_LOOP('',(#75,#76,#77,#78,#79));
#171=EDGE_LOOP('',(#80));
#172=EDGE_LOOP('',(#81));
#173=EDGE_LOOP('',(#82));
#174=EDGE_LOOP('',(#83));
#175=EDGE_LOOP('',(#84));
#176=EDGE_LOOP('',(#85));
#177=EDGE_LOOP('',(#86));
#178=FACE_BOUND('',#145,.T.);
#179=FACE_BOUND('',#146,.T.);
#180=FACE_BOUND('',#147,.T.);
#181=FACE_BOUND('',#148,.T.);
#182=FACE_BOUND('',#149,.T.);
#183=FACE_BOUND('',#150,.T.);
#184=FACE_BOUND('',#151,.T.);
#185=FACE_BOUND('',#152,.T.);
#186=FACE_BOUND('',#153,.T.);
#187=FACE_BOUND('',#154,.T.);
#188=FACE_BOUND('',#155,.T.);
#189=FACE_BOUND('',#156,.T.);
#190=FACE_BOUND('',#157,.T.);
#191=FACE_BOUND('',#158,.T.);
#192=FACE_BOUND('',#159,.T.);
#193=FACE_BOUND('',#160,.T.);
#194=FACE_BOUND('',#161,.T.);
#195=FACE_BOUND('',#162,.T.);
#196=FACE_BOUND('',#163,.T.);
#197=FACE_BOUND('',#164,.T.);
#198=FACE_BOUND('',#165,.T.);
#199=FACE_BOUND('',#166,.T.);
#200=FACE_BOUND('',#167,.T.);
#201=FACE_BOUND('',#168,.T.);
#202=FACE_BOUND('',#169,.T.);
#203=FACE_BOUND('',#170,.T.);
#204=FACE_BOUND('',#171,.T.);
#205=FACE_BOUND('',#172,.T.);
#206=FACE_BOUND('',#173,.T.);
#207=FACE_BOUND('',#174,.T.);
#208=FACE_BOUND('',#175,.T.);
#209=FACE_BOUND('',#176,.T.);
#210=FACE_BOUND('',#177,.T.);
#211=CYLINDRICAL_SURFACE('',#377,5.25);
#212=CYLINDRICAL_SURFACE('',#383,5.99999999999999);
#213=CYLINDRICAL_SURFACE('',#389,1.3);
#214=CYLINDRICAL_SURFACE('',#394,5.3);
#215=CYLINDRICAL_SURFACE('',#410,2.35);
#216=STYLED_ITEM('',(#235),#353);
#217=STYLED_ITEM('',(#236),#354);
#218=STYLED_ITEM('',(#237),#355);
#219=STYLED_ITEM('',(#238),#356);
#220=STYLED_ITEM('',(#239),#357);
#221=STYLED_ITEM('',(#240),#358);
#222=STYLED_ITEM('',(#241),#359);
#223=STYLED_ITEM('',(#242),#360);
#224=STYLED_ITEM('',(#243),#361);
#225=STYLED_ITEM('',(#244),#362);
#226=STYLED_ITEM('',(#245),#363);
#227=STYLED_ITEM('',(#246),#364);
#228=STYLED_ITEM('',(#247),#365);
#229=STYLED_ITEM('',(#248),#366);
#230=STYLED_ITEM('',(#249),#367);
#231=STYLED_ITEM('',(#250),#368);
#232=STYLED_ITEM('',(#251),#369);
#233=STYLED_ITEM('',(#252),#370);
#234=STYLED_ITEM('',(#253),#371);
#235=PRESENTATION_STYLE_ASSIGNMENT((#254));
#236=PRESENTATION_STYLE_ASSIGNMENT((#255));
#237=PRESENTATION_STYLE_ASSIGNMENT((#256));
#238=PRESENTATION_STYLE_ASSIGNMENT((#257));
#239=PRESENTATION_STYLE_ASSIGNMENT((#258));
#240=PRESENTATION_STYLE_ASSIGNMENT((#259));
#241=PRESENTATION_STYLE_ASSIGNMENT((#260));
#242=PRESENTATION_STYLE_ASSIGNMENT((#261));
#243=PRESENTATION_STYLE_ASSIGNMENT((#262));
#244=PRESENTATION_STYLE_ASSIGNMENT((#263));
#245=PRESENTATION_STYLE_ASSIGNMENT((#264));
#246=PRESENTATION_STYLE_ASSIGNMENT((#265));
#247=PRESENTATION_STYLE_ASSIGNMENT((#266));
#248=PRESENTATION_STYLE_ASSIGNMENT((#267));
#249=PRESENTATION_STYLE_ASSIGNMENT((#268));
#250=PRESENTATION_STYLE_ASSIGNMENT((#269));
#251=PRESENTATION_STYLE_ASSIGNMENT((#270));
#252=PRESENTATION_STYLE_ASSIGNMENT((#271));
#253=PRESENTATION_STYLE_ASSIGNMENT((#272));
#254=SURFACE_STYLE_USAGE(.BOTH.,#273);
#255=SURFACE_STYLE_USAGE(.BOTH.,#274);
#256=SURFACE_STYLE_USAGE(.BOTH.,#275);
#257=SURFACE_STYLE_USAGE(.BOTH.,#276);
#258=SURFACE_STYLE_USAGE(.BOTH.,#277);
#259=SURFACE_STYLE_USAGE(.BOTH.,#278);
#260=SURFACE_STYLE_USAGE(.BOTH.,#279);
#261=SURFACE_STYLE_USAGE(.BOTH.,#280);
#262=SURFACE_STYLE_USAGE(.BOTH.,#281);
#263=SURFACE_STYLE_USAGE(.BOTH.,#282);
#264=SURFACE_STYLE_USAGE(.BOTH.,#283);
#265=SURFACE_STYLE_USAGE(.BOTH.,#284);
#266=SURFACE_STYLE_USAGE(.BOTH.,#285);
#267=SURFACE_STYLE_USAGE(.BOTH.,#286);
#268=SURFACE_STYLE_USAGE(.BOTH.,#287);
#269=SURFACE_STYLE_USAGE(.BOTH.,#288);
#270=SURFACE_STYLE_USAGE(.BOTH.,#289);
#271=SURFACE_STYLE_USAGE(.BOTH.,#290);
#272=SURFACE_STYLE_USAGE(.BOTH.,#291);
#273=SURFACE_SIDE_STYLE('',(#292));
#274=SURFACE_SIDE_STYLE('',(#293));
#275=SURFACE_SIDE_STYLE('',(#294));
#276=SURFACE_SIDE_STYLE('',(#295));
#277=SURFACE_SIDE_STYLE('',(#296));
#278=SURFACE_SIDE_STYLE('',(#297));
#279=SURFACE_SIDE_STYLE('',(#298));
#280=SURFACE_SIDE_STYLE('',(#299));
#281=SURFACE_SIDE_STYLE('',(#300));
#282=SURFACE_SIDE_STYLE('',(#301));
#283=SURFACE_SIDE_STYLE('',(#302));
#284=SURFACE_SIDE_STYLE('',(#303));
#285=SURFACE_SIDE_STYLE('',(#304));
#286=SURFACE_SIDE_STYLE('',(#305));
#287=SURFACE_SIDE_STYLE('',(#306));
#288=SURFACE_SIDE_STYLE('',(#307));
#289=SURFACE_SIDE_STYLE('',(#308));
#290=SURFACE_SIDE_STYLE('',(#309));
#291=SURFACE_SIDE_STYLE('',(#310));
#292=SURFACE_STYLE_FILL_AREA(#311);
#293=SURFACE_STYLE_FILL_AREA(#312);
#294=SURFACE_STYLE_FILL_AREA(#313);
#295=SURFACE_STYLE_FILL_AREA(#314);
#296=SURFACE_STYLE_FILL_AREA(#315);
#297=SURFACE_STYLE_FILL_AREA(#316);
#298=SURFACE_STYLE_FILL_AREA(#317);
#299=SURFACE_STYLE_FILL_AREA(#318);
#300=SURFACE_STYLE_FILL_AREA(#319);
#301=SURFACE_STYLE_FILL_AREA(#320);
#302=SURFACE_STYLE_FILL_AREA(#321);
#303=SURFACE_STYLE_FILL_AREA(#322);
#304=SURFACE_STYLE_FILL_AREA(#323);
#305=SURFACE_STYLE_FILL_AREA(#324);
#306=SURFACE_STYLE_FILL_AREA(#325);
#307=SURFACE_STYLE_FILL_AREA(#326);
#308=SURFACE_STYLE_FILL_AREA(#327);
#309=SURFACE_STYLE_FILL_AREA(#328);
#310=SURFACE_STYLE_FILL_AREA(#329);
#311=FILL_AREA_STYLE('',(#330));
#312=FILL_AREA_STYLE('',(#331));
#313=FILL_AREA_STYLE('',(#332));
#314=FILL_AREA_STYLE('',(#333));
#315=FILL_AREA_STYLE('',(#334));
#316=FILL_AREA_STYLE('',(#335));
#317=FILL_AREA_STYLE('',(#336));
#318=FILL_AREA_STYLE('',(#337));
#319=FILL_AREA_STYLE('',(#338));
#320=FILL_AREA_STYLE('',(#339));
#321=FILL_AREA_STYLE('',(#340));
#322=FILL_AREA_STYLE('',(#341));
#323=FILL_AREA_STYLE('',(#342));
#324=FILL_AREA_STYLE('',(#343));
#325=FILL_AREA_STYLE('',(#344));
#326=FILL_AREA_STYLE('',(#345));
#327=FILL_AREA_STYLE('',(#346));
#328=FILL_AREA_STYLE('',(#347));
#329=FILL_AREA_STYLE('',(#348));
#330=FILL_AREA_STYLE_COLOUR('',#349);
#331=FILL_AREA_STYLE_COLOUR('',#349);
#332=FILL_AREA_STYLE_COLOUR('',#349);
#333=FILL_AREA_STYLE_COLOUR('',#350);
#334=FILL_AREA_STYLE_COLOUR('',#351);
#335=FILL_AREA_STYLE_COLOUR('',#20);
#336=FILL_AREA_STYLE_COLOUR('',#351);
#337=FILL_AREA_STYLE_COLOUR('',#351);
#338=FILL_AREA_STYLE_COLOUR('',#351);
#339=FILL_AREA_STYLE_COLOUR('',#351);
#340=FILL_AREA_STYLE_COLOUR('',#351);
#341=FILL_AREA_STYLE_COLOUR('',#20);
#342=FILL_AREA_STYLE_COLOUR('',#20);
#343=FILL_AREA_STYLE_COLOUR('',#20);
#344=FILL_AREA_STYLE_COLOUR('',#20);
#345=FILL_AREA_STYLE_COLOUR('',#351);
#346=FILL_AREA_STYLE_COLOUR('',#351);
#347=FILL_AREA_STYLE_COLOUR('',#352);
#348=FILL_AREA_STYLE_COLOUR('',#352);
#349=COLOUR_RGB('',0.,0.,0.800000011920929);
#350=COLOUR_RGB('',0.1875,0.75,0.581249892711639);
#351=COLOUR_RGB('',0.899999976158142,0.899999976158142,0.899999976158142);
#352=COLOUR_RGB('',0.800000071525574,0.800000071525574,0.800000011920929);
#353=ADVANCED_FACE('',(#178,#179),#211,.T.);
#354=ADVANCED_FACE('',(#180),#35,.F.);
#355=ADVANCED_FACE('',(#181,#182),#34,.T.);
#356=ADVANCED_FACE('',(#183,#184),#212,.T.);
#357=ADVANCED_FACE('',(#185),#23,.T.);
#358=ADVANCED_FACE('',(#186,#187),#213,.F.);
#359=ADVANCED_FACE('',(#188,#189),#36,.T.);
#360=ADVANCED_FACE('',(#190,#191),#214,.T.);
#361=ADVANCED_FACE('',(#192,#193),#37,.T.);
#362=ADVANCED_FACE('',(#194,#195),#24,.F.);
#363=ADVANCED_FACE('',(#196,#197),#38,.T.);
#364=ADVANCED_FACE('',(#198),#39,.F.);
#365=ADVANCED_FACE('',(#199,#200),#25,.T.);
#366=ADVANCED_FACE('',(#201),#40,.T.);
#367=ADVANCED_FACE('',(#202,#203),#41,.T.);
#368=ADVANCED_FACE('',(#204,#205),#26,.T.);
#369=ADVANCED_FACE('',(#206,#207),#27,.F.);
#370=ADVANCED_FACE('',(#208,#209),#215,.T.);
#371=ADVANCED_FACE('',(#210),#42,.F.);
#372=CLOSED_SHELL('',(#353,#354,#355,#356,#357,#358,#359,#360,#361,#362,
#363,#364,#365,#366,#367,#368,#369,#370,#371));
#373=MANIFOLD_SOLID_BREP('',#372);
#374=SHAPE_DEFINITION_REPRESENTATION(#563,#375);
#375=SHAPE_REPRESENTATION('V3M1_3A_fig',(#376),#558);
#376=AXIS2_PLACEMENT_3D('',#490,#413,#414);
#377=AXIS2_PLACEMENT_3D('',#491,#415,#416);
#378=AXIS2_PLACEMENT_3D('',#492,#417,#418);
#379=AXIS2_PLACEMENT_3D('',#494,#419,#420);
#380=AXIS2_PLACEMENT_3D('',#496,#421,#422);
#381=AXIS2_PLACEMENT_3D('',#497,#423,#424);
#382=AXIS2_PLACEMENT_3D('',#499,#425,#426);
#383=AXIS2_PLACEMENT_3D('',#500,#427,#428);
#384=AXIS2_PLACEMENT_3D('',#504,#430,#431);
#385=AXIS2_PLACEMENT_3D('',#508,#433,#434);
#386=AXIS2_PLACEMENT_3D('',#509,#435,#436);
#387=AXIS2_PLACEMENT_3D('',#511,#437,#438);
#388=AXIS2_PLACEMENT_3D('',#521,#439,#440);
#389=AXIS2_PLACEMENT_3D('',#522,#441,#442);
#390=AXIS2_PLACEMENT_3D('',#523,#443,#444);
#391=AXIS2_PLACEMENT_3D('',#525,#445,#446);
#392=AXIS2_PLACEMENT_3D('',#527,#447,#448);
#393=AXIS2_PLACEMENT_3D('',#528,#449,#450);
#394=AXIS2_PLACEMENT_3D('',#530,#451,#452);
#395=AXIS2_PLACEMENT_3D('',#531,#453,#454);
#396=AXIS2_PLACEMENT_3D('',#533,#455,#456);
#397=AXIS2_PLACEMENT_3D('',#534,#457,#458);
#398=AXIS2_PLACEMENT_3D('',#536,#459,#460);
#399=AXIS2_PLACEMENT_3D('',#538,#461,#462);
#400=AXIS2_PLACEMENT_3D('',#539,#463,#464);
#401=AXIS2_PLACEMENT_3D('',#541,#465,#466);
#402=AXIS2_PLACEMENT_3D('',#542,#467,#468);
#403=AXIS2_PLACEMENT_3D('',#544,#469,#470);
#404=AXIS2_PLACEMENT_3D('',#545,#471,#472);
#405=AXIS2_PLACEMENT_3D('',#546,#473,#474);
#406=AXIS2_PLACEMENT_3D('',#548,#476,#477);
#407=AXIS2_PLACEMENT_3D('',#549,#478,#479);
#408=AXIS2_PLACEMENT_3D('',#551,#480,#481);
#409=AXIS2_PLACEMENT_3D('',#552,#482,#483);
#410=AXIS2_PLACEMENT_3D('',#553,#484,#485);
#411=AXIS2_PLACEMENT_3D('',#554,#486,#487);
#412=AXIS2_PLACEMENT_3D('',#556,#488,#489);
#413=DIRECTION('',(0.,0.,1.));
#414=DIRECTION('',(1.,0.,0.));
#415=DIRECTION('',(-1.,0.,0.));
#416=DIRECTION('',(0.,0.,1.));
#417=DIRECTION('',(1.,0.,0.));
#418=DIRECTION('',(0.,0.,-1.));
#419=DIRECTION('',(-1.,0.,0.));
#420=DIRECTION('',(0.,0.,1.));
#421=DIRECTION('',(1.,0.,0.));
#422=DIRECTION('',(0.,0.,-1.));
#423=DIRECTION('',(1.,0.,0.));
#424=DIRECTION('',(0.,0.,-1.));
#425=DIRECTION('',(1.,0.,0.));
#426=DIRECTION('',(0.,0.,-1.));
#427=DIRECTION('',(-1.,0.,0.));
#428=DIRECTION('',(0.,0.,1.));
#429=DIRECTION('',(-1.,0.,0.));
#430=DIRECTION('',(1.,0.,0.));
#431=DIRECTION('',(0.,0.,-1.));
#432=DIRECTION('',(-1.,0.,0.));
#433=DIRECTION('',(-1.,0.,0.));
#434=DIRECTION('',(0.,0.,1.));
#435=DIRECTION('',(-1.,0.,0.));
#436=DIRECTION('',(0.,0.,1.));
#437=DIRECTION('',(-1.,0.,0.));
#438=DIRECTION('',(0.,0.,1.));
#439=DIRECTION('',(-1.,0.,0.));
#440=DIRECTION('',(0.,0.,1.));
#441=DIRECTION('',(0.,1.,0.));
#442=DIRECTION('',(0.,0.,-1.));
#443=DIRECTION('',(0.,-1.,0.));
#444=DIRECTION('',(0.,0.,-1.));
#445=DIRECTION('',(0.,-1.,0.));
#446=DIRECTION('',(0.,0.,-1.));
#447=DIRECTION('',(-1.,0.,0.));
#448=DIRECTION('',(0.,0.,1.));
#449=DIRECTION('',(-1.,0.,0.));
#450=DIRECTION('',(0.,0.,1.));
#451=DIRECTION('',(-1.,0.,0.));
#452=DIRECTION('',(0.,0.,1.));
#453=DIRECTION('',(1.,0.,0.));
#454=DIRECTION('',(0.,0.,-1.));
#455=DIRECTION('',(1.,0.,0.));
#456=DIRECTION('',(0.,0.,-1.));
#457=DIRECTION('',(1.,0.,0.));
#458=DIRECTION('',(0.,0.,-1.));
#459=DIRECTION('',(-1.,0.,0.));
#460=DIRECTION('',(0.,0.,1.));
#461=DIRECTION('',(1.,0.,0.));
#462=DIRECTION('',(0.,0.,-1.));
#463=DIRECTION('',(-1.,0.,0.));
#464=DIRECTION('',(0.,0.,1.));
#465=DIRECTION('',(1.,0.,0.));
#466=DIRECTION('',(0.,0.,-1.));
#467=DIRECTION('',(1.,0.,0.));
#468=DIRECTION('',(0.,0.,-1.));
#469=DIRECTION('',(0.,1.,0.));
#470=DIRECTION('',(0.,0.,1.));
#471=DIRECTION('',(1.,0.,0.));
#472=DIRECTION('',(0.,0.,-1.));
#473=DIRECTION('',(1.,0.,0.));
#474=DIRECTION('',(0.,0.,-1.));
#475=DIRECTION('',(0.,0.,-1.));
#476=DIRECTION('',(0.,-1.,0.));
#477=DIRECTION('',(0.,0.,-1.));
#478=DIRECTION('',(0.,-1.,0.));
#479=DIRECTION('',(0.,0.,-1.));
#480=DIRECTION('',(-1.,0.,0.));
#481=DIRECTION('',(0.,0.,1.));
#482=DIRECTION('',(0.,-1.,0.));
#483=DIRECTION('',(0.,0.,-1.));
#484=DIRECTION('',(-1.,-5.17910685515683E-17,5.57450635805618E-17));
#485=DIRECTION('',(-1.38777878078145E-16,8.50014503228635E-17,-1.));
#486=DIRECTION('',(-1.,-5.17910685515683E-17,5.57450635805618E-17));
#487=DIRECTION('',(-1.14491749414469E-16,-1.,-8.67361737988403E-19));
#488=DIRECTION('',(-1.,-5.17910685515683E-17,5.57450635805618E-17));
#489=DIRECTION('',(-1.38777878078145E-16,8.50014503228635E-17,-1.));
#490=CARTESIAN_POINT('',(0.,0.,0.));
#491=CARTESIAN_POINT('',(-0.500000000000001,1.18128510161156E-16,-1.07594217097468E-16));
#492=CARTESIAN_POINT('',(-0.300000000000001,1.18128510161156E-16,-1.07594217097468E-16));
#493=CARTESIAN_POINT('',(-0.300000000000001,1.18128510161156E-16,-5.25));
#494=CARTESIAN_POINT('',(-7.58941520739853E-16,1.18128510161156E-16,-1.07594217097468E-16));
#495=CARTESIAN_POINT('',(-7.58941520739853E-16,1.18128510161156E-16,5.25));
#496=CARTESIAN_POINT('',(-0.500000000000001,1.18128510161156E-16,-1.07594217097468E-16));
#497=CARTESIAN_POINT('',(-0.500000000000001,1.18128510161156E-16,-1.07594217097468E-16));
#498=CARTESIAN_POINT('',(-0.500000000000001,1.18128510161156E-16,-5.05));
#499=CARTESIAN_POINT('',(-0.300000000000001,1.18128510161156E-16,-1.07594217097468E-16));
#500=CARTESIAN_POINT('',(26.6990502471846,0.,0.));
#501=CARTESIAN_POINT('',(26.6990502471846,-5.29999999999999,-2.81247222208505));
#502=CARTESIAN_POINT('',(32.5,-5.29999999999999,-2.81247222208505));
#503=CARTESIAN_POINT('',(52.3,-5.29999999999999,-2.81247222208505));
#504=CARTESIAN_POINT('',(32.5,0.,0.));
#505=CARTESIAN_POINT('',(32.5,-5.29999999999999,2.81247222208505));
#506=CARTESIAN_POINT('',(26.6990502471846,-5.29999999999999,2.81247222208505));
#507=CARTESIAN_POINT('',(52.3,-5.29999999999999,2.81247222208505));
#508=CARTESIAN_POINT('',(52.3,0.,0.));
#509=CARTESIAN_POINT('',(0.5,0.,0.));
#510=CARTESIAN_POINT('',(0.5,0.,5.99999999999999));
#511=CARTESIAN_POINT('',(52.3,0.,0.));
#512=CARTESIAN_POINT('',(52.3000000000001,-5.29999999999999,-2.8124722220851));
#513=CARTESIAN_POINT('',(52.712252338114,-5.29999999999999,-1.9329918811737));
#514=CARTESIAN_POINT('',(53.,-5.29999999999999,-0.983355411179101));
#515=CARTESIAN_POINT('',(53.,-5.29999999999999,2.35530296094401E-15));
#516=CARTESIAN_POINT('',(53.,-5.29999999999999,0.));
#517=CARTESIAN_POINT('',(52.3,-5.29999999999999,2.81247222208505));
#518=CARTESIAN_POINT('',(52.71016179539,-5.29999999999999,1.9374517496996));
#519=CARTESIAN_POINT('',(53.,-5.29999999999999,0.970706613478257));
#520=CARTESIAN_POINT('',(53.,-5.29999999999999,-6.91963036347455E-15));
#521=CARTESIAN_POINT('',(53.,0.,0.));
#522=CARTESIAN_POINT('',(34.7,-5.99999999999999,5.51091059616309E-16));
#523=CARTESIAN_POINT('',(34.7,-5.1,5.51091059616309E-16));
#524=CARTESIAN_POINT('',(34.7,-5.1,-1.3));
#525=CARTESIAN_POINT('',(34.7,-3.99999999999999,5.51091059616309E-16));
#526=CARTESIAN_POINT('',(34.7,-3.99999999999999,-1.3));
#527=CARTESIAN_POINT('',(1.83690953073356E-16,5.99999999999999,0.));
#528=CARTESIAN_POINT('',(1.83690953073356E-16,0.,0.));
#529=CARTESIAN_POINT('',(1.83690953073356E-16,0.,5.49999999999999));
#530=CARTESIAN_POINT('',(26.6990502471846,0.,0.));
#531=CARTESIAN_POINT('',(58.8,0.,0.));
#532=CARTESIAN_POINT('',(58.8,0.,-5.3));
#533=CARTESIAN_POINT('',(59.5,5.3,0.));
#534=CARTESIAN_POINT('',(59.5,0.,0.));
#535=CARTESIAN_POINT('',(59.5,0.,-4.60000000000001));
#536=CARTESIAN_POINT('',(59.5,0.,0.));
#537=CARTESIAN_POINT('',(59.5,0.,2.7639702342662));
#538=CARTESIAN_POINT('',(59.5,0.,0.));
#539=CARTESIAN_POINT('',(58.5,0.,0.));
#540=CARTESIAN_POINT('',(58.5,0.,2.4));
#541=CARTESIAN_POINT('',(58.5,2.4,0.));
#542=CARTESIAN_POINT('',(58.5,2.33059808482057E-16,-2.50852786112529E-16));
#543=CARTESIAN_POINT('',(58.5,2.33059808482057E-16,-2.35));
#544=CARTESIAN_POINT('',(34.7,-3.99999999999999,5.51091059616309E-16));
#545=CARTESIAN_POINT('',(0.,0.,0.));
#546=CARTESIAN_POINT('',(32.5,-5.29999999999999,61.8728534981215));
#547=CARTESIAN_POINT('',(32.5,-5.29999999999999,61.8728534981215));
#548=CARTESIAN_POINT('',(32.5,-5.29999999999999,61.8728534981215));
#549=CARTESIAN_POINT('',(34.7,-5.29999999999999,5.51091059616309E-16));
#550=CARTESIAN_POINT('',(34.7,-5.29999999999999,-1.5));
#551=CARTESIAN_POINT('',(58.8,0.,0.));
#552=CARTESIAN_POINT('',(34.7,-5.29999999999999,5.51091059616309E-16));
#553=CARTESIAN_POINT('',(94.,2.07164274206273E-15,-2.22980254322247E-15));
#554=CARTESIAN_POINT('',(94.,2.07164274206273E-15,-2.22980254322247E-15));
#555=CARTESIAN_POINT('',(94.,-2.35,-2.23184084330675E-15));
#556=CARTESIAN_POINT('',(94.,2.07164274206273E-15,-2.22980254322247E-15));
#557=MECHANICAL_DESIGN_GEOMETRIC_PRESENTATION_REPRESENTATION('',(#216,#217,
#218,#219,#220,#221,#222,#223,#224,#225,#226,#227,#228,#229,#230,#231,#232,
#233,#234),#558);
#558=(
GEOMETRIC_REPRESENTATION_CONTEXT(3)
GLOBAL_UNCERTAINTY_ASSIGNED_CONTEXT((#559))
GLOBAL_UNIT_ASSIGNED_CONTEXT((#562,#561,#560))
REPRESENTATION_CONTEXT('V3M1_3A_fig','TOP_LEVEL_ASSEMBLY_PART')
);
#559=UNCERTAINTY_MEASURE_WITH_UNIT(LENGTH_MEASURE(0.005),#562,
'DISTANCE_ACCURACY_VALUE','Maximum Tolerance applied to model');
#560=(
NAMED_UNIT(*)
SI_UNIT($,.STERADIAN.)
SOLID_ANGLE_UNIT()
);
#561=(
NAMED_UNIT(*)
PLANE_ANGLE_UNIT()
SI_UNIT($,.RADIAN.)
);
#562=(
LENGTH_UNIT()
NAMED_UNIT(*)
SI_UNIT(.MILLI.,.METRE.)
);
#563=PRODUCT_DEFINITION_SHAPE('','',#564);
#564=PRODUCT_DEFINITION('','',#566,#565);
#565=PRODUCT_DEFINITION_CONTEXT('',#572,'design');
#566=PRODUCT_DEFINITION_FORMATION_WITH_SPECIFIED_SOURCE('','',#568,
 .NOT_KNOWN.);
#567=PRODUCT_RELATED_PRODUCT_CATEGORY('','',(#568));
#568=PRODUCT('V3M1_3A_fig','V3M1_3A_fig','V3M1_3A_fig',(#570));
#569=PRODUCT_CATEGORY('','');
#570=PRODUCT_CONTEXT('',#572,'mechanical');
#571=APPLICATION_PROTOCOL_DEFINITION('international standard',
'automotive_design',2010,#572);
#572=APPLICATION_CONTEXT(
'core data for automotive mechanical design processes');
ENDSEC;
END-ISO-10303-21;
