ISO-10303-21;
HEADER;
/* Generated by software containing ST-Developer
 * from STEP Tools, Inc. (www.steptools.com) 
 */
/* OPTION: strings as raw bytes, not using required /X/ escapes */

FILE_DESCRIPTION(
/* description */ (''),
/* implementation_level */ '2;1');

FILE_NAME(
/* name */ 'V3M1_4A_fig',
/* time_stamp */ '2017-05-15T17:27:28+02:00',
/* author */ ('GDA'),
/* organization */ ('MD Microdetectors'),
/* preprocessor_version */ 'ST-DEVELOPER v16.7',
/* originating_system */ 'DEX',
/* authorisation */ $);

FILE_SCHEMA (('AUTOMOTIVE_DESIGN {1 0 10303 214 3 1 1}'));
ENDSEC;

DATA;
#10=PROPERTY_DEFINITION_REPRESENTATION(#14,#12);
#11=PROPERTY_DEFINITION_REPRESENTATION(#15,#13);
#12=REPRESENTATION('',(#16),#558);
#13=REPRESENTATION('',(#17),#558);
#14=PROPERTY_DEFINITION('pmi validation property','',#563);
#15=PROPERTY_DEFINITION('pmi validation property','',#563);
#16=VALUE_REPRESENTATION_ITEM('number of annotations',COUNT_MEASURE(0.));
#17=VALUE_REPRESENTATION_ITEM('number of views',COUNT_MEASURE(0.));
#18=SHAPE_REPRESENTATION_RELATIONSHIP('','',#375,#19);
#19=ADVANCED_BREP_SHAPE_REPRESENTATION('',(#373),#558);
#20=DRAUGHTING_PRE_DEFINED_COLOUR('white');
#21=B_SPLINE_CURVE_WITH_KNOTS('',3,(#518,#519,#520,#521),.UNSPECIFIED.,
 .F.,.F.,(4,4),(0.00407509142298729,0.0069722490353748),.UNSPECIFIED.);
#22=B_SPLINE_CURVE_WITH_KNOTS('',3,(#523,#524,#525,#526),.UNSPECIFIED.,
 .F.,.F.,(4,4),(0.00766652777861599,0.010574805256657),.UNSPECIFIED.);
#23=LINE('',#507,#26);
#24=LINE('',#512,#27);
#25=LINE('',#551,#28);
#26=VECTOR('',#437,1000.);
#27=VECTOR('',#440,1000.);
#28=VECTOR('',#481,1000.);
#29=TOROIDAL_SURFACE('',#386,4.80784006394885,0.2);
#30=CONICAL_SURFACE('',#381,5.2,0.0399786871232907);
#31=CONICAL_SURFACE('',#391,6.,0.785398163397441);
#32=CONICAL_SURFACE('',#403,2.7639702342662,0.349065850398866);
#33=CONICAL_SURFACE('',#407,5.49999999999999,0.785398163397448);
#34=CONICAL_SURFACE('',#411,5.3,0.785398163397449);
#35=CONICAL_SURFACE('',#412,1.5,0.785398163397449);
#36=PLANE('',#380);
#37=PLANE('',#384);
#38=PLANE('',#396);
#39=PLANE('',#400);
#40=PLANE('',#405);
#41=PLANE('',#406);
#42=PLANE('',#408);
#43=PLANE('',#409);
#44=ORIENTED_EDGE('',*,*,#88,.T.);
#45=ORIENTED_EDGE('',*,*,#89,.F.);
#46=ORIENTED_EDGE('',*,*,#88,.F.);
#47=ORIENTED_EDGE('',*,*,#90,.T.);
#48=ORIENTED_EDGE('',*,*,#91,.T.);
#49=ORIENTED_EDGE('',*,*,#92,.T.);
#50=ORIENTED_EDGE('',*,*,#90,.F.);
#51=ORIENTED_EDGE('',*,*,#92,.F.);
#52=ORIENTED_EDGE('',*,*,#93,.F.);
#53=ORIENTED_EDGE('',*,*,#94,.T.);
#54=ORIENTED_EDGE('',*,*,#95,.T.);
#55=ORIENTED_EDGE('',*,*,#96,.T.);
#56=ORIENTED_EDGE('',*,*,#97,.T.);
#57=ORIENTED_EDGE('',*,*,#98,.F.);
#58=ORIENTED_EDGE('',*,*,#96,.F.);
#59=ORIENTED_EDGE('',*,*,#99,.T.);
#60=ORIENTED_EDGE('',*,*,#100,.T.);
#61=ORIENTED_EDGE('',*,*,#101,.T.);
#62=ORIENTED_EDGE('',*,*,#102,.F.);
#63=ORIENTED_EDGE('',*,*,#91,.F.);
#64=ORIENTED_EDGE('',*,*,#103,.T.);
#65=ORIENTED_EDGE('',*,*,#104,.T.);
#66=ORIENTED_EDGE('',*,*,#100,.F.);
#67=ORIENTED_EDGE('',*,*,#105,.T.);
#68=ORIENTED_EDGE('',*,*,#106,.T.);
#69=ORIENTED_EDGE('',*,*,#107,.T.);
#70=ORIENTED_EDGE('',*,*,#106,.F.);
#71=ORIENTED_EDGE('',*,*,#89,.T.);
#72=ORIENTED_EDGE('',*,*,#107,.F.);
#73=ORIENTED_EDGE('',*,*,#102,.T.);
#74=ORIENTED_EDGE('',*,*,#97,.F.);
#75=ORIENTED_EDGE('',*,*,#103,.F.);
#76=ORIENTED_EDGE('',*,*,#94,.F.);
#77=ORIENTED_EDGE('',*,*,#108,.F.);
#78=ORIENTED_EDGE('',*,*,#109,.T.);
#79=ORIENTED_EDGE('',*,*,#108,.T.);
#80=ORIENTED_EDGE('',*,*,#93,.T.);
#81=ORIENTED_EDGE('',*,*,#98,.T.);
#82=ORIENTED_EDGE('',*,*,#99,.F.);
#83=ORIENTED_EDGE('',*,*,#95,.F.);
#84=ORIENTED_EDGE('',*,*,#105,.F.);
#85=ORIENTED_EDGE('',*,*,#104,.F.);
#86=ORIENTED_EDGE('',*,*,#101,.F.);
#87=ORIENTED_EDGE('',*,*,#109,.F.);
#88=EDGE_CURVE('',#110,#110,#129,.T.);
#89=EDGE_CURVE('',#111,#111,#130,.T.);
#90=EDGE_CURVE('',#112,#112,#131,.F.);
#91=EDGE_CURVE('',#113,#113,#132,.T.);
#92=EDGE_CURVE('',#114,#114,#133,.F.);
#93=EDGE_CURVE('',#115,#116,#23,.F.);
#94=EDGE_CURVE('',#115,#117,#134,.F.);
#95=EDGE_CURVE('',#117,#118,#24,.F.);
#96=EDGE_CURVE('',#118,#116,#135,.T.);
#97=EDGE_CURVE('',#119,#119,#136,.F.);
#98=EDGE_CURVE('',#116,#120,#21,.T.);
#99=EDGE_CURVE('',#118,#120,#22,.T.);
#100=EDGE_CURVE('',#120,#120,#137,.T.);
#101=EDGE_CURVE('',#121,#121,#138,.T.);
#102=EDGE_CURVE('',#122,#122,#139,.T.);
#103=EDGE_CURVE('',#123,#123,#140,.T.);
#104=EDGE_CURVE('',#124,#124,#141,.F.);
#105=EDGE_CURVE('',#125,#125,#142,.T.);
#106=EDGE_CURVE('',#126,#126,#143,.T.);
#107=EDGE_CURVE('',#127,#127,#144,.T.);
#108=EDGE_CURVE('',#117,#115,#25,.T.);
#109=EDGE_CURVE('',#128,#128,#145,.F.);
#110=VERTEX_POINT('',#493);
#111=VERTEX_POINT('',#495);
#112=VERTEX_POINT('',#499);
#113=VERTEX_POINT('',#501);
#114=VERTEX_POINT('',#504);
#115=VERTEX_POINT('',#508);
#116=VERTEX_POINT('',#509);
#117=VERTEX_POINT('',#511);
#118=VERTEX_POINT('',#513);
#119=VERTEX_POINT('',#516);
#120=VERTEX_POINT('',#522);
#121=VERTEX_POINT('',#530);
#122=VERTEX_POINT('',#532);
#123=VERTEX_POINT('',#535);
#124=VERTEX_POINT('',#538);
#125=VERTEX_POINT('',#541);
#126=VERTEX_POINT('',#543);
#127=VERTEX_POINT('',#546);
#128=VERTEX_POINT('',#554);
#129=CIRCLE('',#378,2.35);
#130=CIRCLE('',#379,2.35);
#131=CIRCLE('',#382,5.00768025569321);
#132=CIRCLE('',#383,5.2);
#133=CIRCLE('',#385,4.80784006394885);
#134=CIRCLE('',#388,5.99999999999999);
#135=CIRCLE('',#389,6.);
#136=CIRCLE('',#390,5.99999999999999);
#137=CIRCLE('',#392,5.3);
#138=CIRCLE('',#394,1.3);
#139=CIRCLE('',#395,1.3);
#140=CIRCLE('',#397,5.49999999999999);
#141=CIRCLE('',#399,5.3);
#142=CIRCLE('',#401,4.6);
#143=CIRCLE('',#402,2.7639702342662);
#144=CIRCLE('',#404,2.4);
#145=CIRCLE('',#410,1.5);
#146=EDGE_LOOP('',(#44));
#147=EDGE_LOOP('',(#45));
#148=EDGE_LOOP('',(#46));
#149=EDGE_LOOP('',(#47));
#150=EDGE_LOOP('',(#48));
#151=EDGE_LOOP('',(#49));
#152=EDGE_LOOP('',(#50));
#153=EDGE_LOOP('',(#51));
#154=EDGE_LOOP('',(#52,#53,#54,#55));
#155=EDGE_LOOP('',(#56));
#156=EDGE_LOOP('',(#57,#58,#59,#60));
#157=EDGE_LOOP('',(#61));
#158=EDGE_LOOP('',(#62));
#159=EDGE_LOOP('',(#63));
#160=EDGE_LOOP('',(#64));
#161=EDGE_LOOP('',(#65));
#162=EDGE_LOOP('',(#66));
#163=EDGE_LOOP('',(#67));
#164=EDGE_LOOP('',(#68));
#165=EDGE_LOOP('',(#69));
#166=EDGE_LOOP('',(#70));
#167=EDGE_LOOP('',(#71));
#168=EDGE_LOOP('',(#72));
#169=EDGE_LOOP('',(#73));
#170=EDGE_LOOP('',(#74));
#171=EDGE_LOOP('',(#75));
#172=EDGE_LOOP('',(#76,#77));
#173=EDGE_LOOP('',(#78));
#174=EDGE_LOOP('',(#79,#80,#81,#82,#83));
#175=EDGE_LOOP('',(#84));
#176=EDGE_LOOP('',(#85));
#177=EDGE_LOOP('',(#86));
#178=EDGE_LOOP('',(#87));
#179=FACE_BOUND('',#146,.T.);
#180=FACE_BOUND('',#147,.T.);
#181=FACE_BOUND('',#148,.T.);
#182=FACE_BOUND('',#149,.T.);
#183=FACE_BOUND('',#150,.T.);
#184=FACE_BOUND('',#151,.T.);
#185=FACE_BOUND('',#152,.T.);
#186=FACE_BOUND('',#153,.T.);
#187=FACE_BOUND('',#154,.T.);
#188=FACE_BOUND('',#155,.T.);
#189=FACE_BOUND('',#156,.T.);
#190=FACE_BOUND('',#157,.T.);
#191=FACE_BOUND('',#158,.T.);
#192=FACE_BOUND('',#159,.T.);
#193=FACE_BOUND('',#160,.T.);
#194=FACE_BOUND('',#161,.T.);
#195=FACE_BOUND('',#162,.T.);
#196=FACE_BOUND('',#163,.T.);
#197=FACE_BOUND('',#164,.T.);
#198=FACE_BOUND('',#165,.T.);
#199=FACE_BOUND('',#166,.T.);
#200=FACE_BOUND('',#167,.T.);
#201=FACE_BOUND('',#168,.T.);
#202=FACE_BOUND('',#169,.T.);
#203=FACE_BOUND('',#170,.T.);
#204=FACE_BOUND('',#171,.T.);
#205=FACE_BOUND('',#172,.T.);
#206=FACE_BOUND('',#173,.T.);
#207=FACE_BOUND('',#174,.T.);
#208=FACE_BOUND('',#175,.T.);
#209=FACE_BOUND('',#176,.T.);
#210=FACE_BOUND('',#177,.T.);
#211=FACE_BOUND('',#178,.T.);
#212=CYLINDRICAL_SURFACE('',#377,2.35);
#213=CYLINDRICAL_SURFACE('',#387,5.99999999999999);
#214=CYLINDRICAL_SURFACE('',#393,1.3);
#215=CYLINDRICAL_SURFACE('',#398,5.3);
#216=STYLED_ITEM('',(#235),#353);
#217=STYLED_ITEM('',(#236),#354);
#218=STYLED_ITEM('',(#237),#355);
#219=STYLED_ITEM('',(#238),#356);
#220=STYLED_ITEM('',(#239),#357);
#221=STYLED_ITEM('',(#240),#358);
#222=STYLED_ITEM('',(#241),#359);
#223=STYLED_ITEM('',(#242),#360);
#224=STYLED_ITEM('',(#243),#361);
#225=STYLED_ITEM('',(#244),#362);
#226=STYLED_ITEM('',(#245),#363);
#227=STYLED_ITEM('',(#246),#364);
#228=STYLED_ITEM('',(#247),#365);
#229=STYLED_ITEM('',(#248),#366);
#230=STYLED_ITEM('',(#249),#367);
#231=STYLED_ITEM('',(#250),#368);
#232=STYLED_ITEM('',(#251),#369);
#233=STYLED_ITEM('',(#252),#370);
#234=STYLED_ITEM('',(#253),#371);
#235=PRESENTATION_STYLE_ASSIGNMENT((#254));
#236=PRESENTATION_STYLE_ASSIGNMENT((#255));
#237=PRESENTATION_STYLE_ASSIGNMENT((#256));
#238=PRESENTATION_STYLE_ASSIGNMENT((#257));
#239=PRESENTATION_STYLE_ASSIGNMENT((#258));
#240=PRESENTATION_STYLE_ASSIGNMENT((#259));
#241=PRESENTATION_STYLE_ASSIGNMENT((#260));
#242=PRESENTATION_STYLE_ASSIGNMENT((#261));
#243=PRESENTATION_STYLE_ASSIGNMENT((#262));
#244=PRESENTATION_STYLE_ASSIGNMENT((#263));
#245=PRESENTATION_STYLE_ASSIGNMENT((#264));
#246=PRESENTATION_STYLE_ASSIGNMENT((#265));
#247=PRESENTATION_STYLE_ASSIGNMENT((#266));
#248=PRESENTATION_STYLE_ASSIGNMENT((#267));
#249=PRESENTATION_STYLE_ASSIGNMENT((#268));
#250=PRESENTATION_STYLE_ASSIGNMENT((#269));
#251=PRESENTATION_STYLE_ASSIGNMENT((#270));
#252=PRESENTATION_STYLE_ASSIGNMENT((#271));
#253=PRESENTATION_STYLE_ASSIGNMENT((#272));
#254=SURFACE_STYLE_USAGE(.BOTH.,#273);
#255=SURFACE_STYLE_USAGE(.BOTH.,#274);
#256=SURFACE_STYLE_USAGE(.BOTH.,#275);
#257=SURFACE_STYLE_USAGE(.BOTH.,#276);
#258=SURFACE_STYLE_USAGE(.BOTH.,#277);
#259=SURFACE_STYLE_USAGE(.BOTH.,#278);
#260=SURFACE_STYLE_USAGE(.BOTH.,#279);
#261=SURFACE_STYLE_USAGE(.BOTH.,#280);
#262=SURFACE_STYLE_USAGE(.BOTH.,#281);
#263=SURFACE_STYLE_USAGE(.BOTH.,#282);
#264=SURFACE_STYLE_USAGE(.BOTH.,#283);
#265=SURFACE_STYLE_USAGE(.BOTH.,#284);
#266=SURFACE_STYLE_USAGE(.BOTH.,#285);
#267=SURFACE_STYLE_USAGE(.BOTH.,#286);
#268=SURFACE_STYLE_USAGE(.BOTH.,#287);
#269=SURFACE_STYLE_USAGE(.BOTH.,#288);
#270=SURFACE_STYLE_USAGE(.BOTH.,#289);
#271=SURFACE_STYLE_USAGE(.BOTH.,#290);
#272=SURFACE_STYLE_USAGE(.BOTH.,#291);
#273=SURFACE_SIDE_STYLE('',(#292));
#274=SURFACE_SIDE_STYLE('',(#293));
#275=SURFACE_SIDE_STYLE('',(#294));
#276=SURFACE_SIDE_STYLE('',(#295));
#277=SURFACE_SIDE_STYLE('',(#296));
#278=SURFACE_SIDE_STYLE('',(#297));
#279=SURFACE_SIDE_STYLE('',(#298));
#280=SURFACE_SIDE_STYLE('',(#299));
#281=SURFACE_SIDE_STYLE('',(#300));
#282=SURFACE_SIDE_STYLE('',(#301));
#283=SURFACE_SIDE_STYLE('',(#302));
#284=SURFACE_SIDE_STYLE('',(#303));
#285=SURFACE_SIDE_STYLE('',(#304));
#286=SURFACE_SIDE_STYLE('',(#305));
#287=SURFACE_SIDE_STYLE('',(#306));
#288=SURFACE_SIDE_STYLE('',(#307));
#289=SURFACE_SIDE_STYLE('',(#308));
#290=SURFACE_SIDE_STYLE('',(#309));
#291=SURFACE_SIDE_STYLE('',(#310));
#292=SURFACE_STYLE_FILL_AREA(#311);
#293=SURFACE_STYLE_FILL_AREA(#312);
#294=SURFACE_STYLE_FILL_AREA(#313);
#295=SURFACE_STYLE_FILL_AREA(#314);
#296=SURFACE_STYLE_FILL_AREA(#315);
#297=SURFACE_STYLE_FILL_AREA(#316);
#298=SURFACE_STYLE_FILL_AREA(#317);
#299=SURFACE_STYLE_FILL_AREA(#318);
#300=SURFACE_STYLE_FILL_AREA(#319);
#301=SURFACE_STYLE_FILL_AREA(#320);
#302=SURFACE_STYLE_FILL_AREA(#321);
#303=SURFACE_STYLE_FILL_AREA(#322);
#304=SURFACE_STYLE_FILL_AREA(#323);
#305=SURFACE_STYLE_FILL_AREA(#324);
#306=SURFACE_STYLE_FILL_AREA(#325);
#307=SURFACE_STYLE_FILL_AREA(#326);
#308=SURFACE_STYLE_FILL_AREA(#327);
#309=SURFACE_STYLE_FILL_AREA(#328);
#310=SURFACE_STYLE_FILL_AREA(#329);
#311=FILL_AREA_STYLE('',(#330));
#312=FILL_AREA_STYLE('',(#331));
#313=FILL_AREA_STYLE('',(#332));
#314=FILL_AREA_STYLE('',(#333));
#315=FILL_AREA_STYLE('',(#334));
#316=FILL_AREA_STYLE('',(#335));
#317=FILL_AREA_STYLE('',(#336));
#318=FILL_AREA_STYLE('',(#337));
#319=FILL_AREA_STYLE('',(#338));
#320=FILL_AREA_STYLE('',(#339));
#321=FILL_AREA_STYLE('',(#340));
#322=FILL_AREA_STYLE('',(#341));
#323=FILL_AREA_STYLE('',(#342));
#324=FILL_AREA_STYLE('',(#343));
#325=FILL_AREA_STYLE('',(#344));
#326=FILL_AREA_STYLE('',(#345));
#327=FILL_AREA_STYLE('',(#346));
#328=FILL_AREA_STYLE('',(#347));
#329=FILL_AREA_STYLE('',(#348));
#330=FILL_AREA_STYLE_COLOUR('',#349);
#331=FILL_AREA_STYLE_COLOUR('',#349);
#332=FILL_AREA_STYLE_COLOUR('',#350);
#333=FILL_AREA_STYLE_COLOUR('',#350);
#334=FILL_AREA_STYLE_COLOUR('',#350);
#335=FILL_AREA_STYLE_COLOUR('',#351);
#336=FILL_AREA_STYLE_COLOUR('',#352);
#337=FILL_AREA_STYLE_COLOUR('',#20);
#338=FILL_AREA_STYLE_COLOUR('',#352);
#339=FILL_AREA_STYLE_COLOUR('',#352);
#340=FILL_AREA_STYLE_COLOUR('',#352);
#341=FILL_AREA_STYLE_COLOUR('',#352);
#342=FILL_AREA_STYLE_COLOUR('',#352);
#343=FILL_AREA_STYLE_COLOUR('',#20);
#344=FILL_AREA_STYLE_COLOUR('',#20);
#345=FILL_AREA_STYLE_COLOUR('',#20);
#346=FILL_AREA_STYLE_COLOUR('',#20);
#347=FILL_AREA_STYLE_COLOUR('',#352);
#348=FILL_AREA_STYLE_COLOUR('',#352);
#349=COLOUR_RGB('',0.800000071525574,0.800000071525574,0.800000011920929);
#350=COLOUR_RGB('',0.,0.,0.800000011920929);
#351=COLOUR_RGB('',0.1875,0.75,0.581249892711639);
#352=COLOUR_RGB('',0.899999976158142,0.899999976158142,0.899999976158142);
#353=ADVANCED_FACE('',(#179,#180),#212,.T.);
#354=ADVANCED_FACE('',(#181),#36,.F.);
#355=ADVANCED_FACE('',(#182,#183),#30,.T.);
#356=ADVANCED_FACE('',(#184),#37,.F.);
#357=ADVANCED_FACE('',(#185,#186),#29,.T.);
#358=ADVANCED_FACE('',(#187,#188),#213,.T.);
#359=ADVANCED_FACE('',(#189),#31,.T.);
#360=ADVANCED_FACE('',(#190,#191),#214,.F.);
#361=ADVANCED_FACE('',(#192,#193),#38,.T.);
#362=ADVANCED_FACE('',(#194,#195),#215,.T.);
#363=ADVANCED_FACE('',(#196,#197),#39,.T.);
#364=ADVANCED_FACE('',(#198,#199),#32,.F.);
#365=ADVANCED_FACE('',(#200,#201),#40,.T.);
#366=ADVANCED_FACE('',(#202),#41,.F.);
#367=ADVANCED_FACE('',(#203,#204),#33,.T.);
#368=ADVANCED_FACE('',(#205),#42,.T.);
#369=ADVANCED_FACE('',(#206,#207),#43,.T.);
#370=ADVANCED_FACE('',(#208,#209),#34,.T.);
#371=ADVANCED_FACE('',(#210,#211),#35,.F.);
#372=CLOSED_SHELL('',(#353,#354,#355,#356,#357,#358,#359,#360,#361,#362,
#363,#364,#365,#366,#367,#368,#369,#370,#371));
#373=MANIFOLD_SOLID_BREP('',#372);
#374=SHAPE_DEFINITION_REPRESENTATION(#563,#375);
#375=SHAPE_REPRESENTATION('V3M1_4A_fig',(#376),#558);
#376=AXIS2_PLACEMENT_3D('',#490,#413,#414);
#377=AXIS2_PLACEMENT_3D('',#491,#415,#416);
#378=AXIS2_PLACEMENT_3D('',#492,#417,#418);
#379=AXIS2_PLACEMENT_3D('',#494,#419,#420);
#380=AXIS2_PLACEMENT_3D('',#496,#421,#422);
#381=AXIS2_PLACEMENT_3D('',#497,#423,#424);
#382=AXIS2_PLACEMENT_3D('',#498,#425,#426);
#383=AXIS2_PLACEMENT_3D('',#500,#427,#428);
#384=AXIS2_PLACEMENT_3D('',#502,#429,#430);
#385=AXIS2_PLACEMENT_3D('',#503,#431,#432);
#386=AXIS2_PLACEMENT_3D('',#505,#433,#434);
#387=AXIS2_PLACEMENT_3D('',#506,#435,#436);
#388=AXIS2_PLACEMENT_3D('',#510,#438,#439);
#389=AXIS2_PLACEMENT_3D('',#514,#441,#442);
#390=AXIS2_PLACEMENT_3D('',#515,#443,#444);
#391=AXIS2_PLACEMENT_3D('',#517,#445,#446);
#392=AXIS2_PLACEMENT_3D('',#527,#447,#448);
#393=AXIS2_PLACEMENT_3D('',#528,#449,#450);
#394=AXIS2_PLACEMENT_3D('',#529,#451,#452);
#395=AXIS2_PLACEMENT_3D('',#531,#453,#454);
#396=AXIS2_PLACEMENT_3D('',#533,#455,#456);
#397=AXIS2_PLACEMENT_3D('',#534,#457,#458);
#398=AXIS2_PLACEMENT_3D('',#536,#459,#460);
#399=AXIS2_PLACEMENT_3D('',#537,#461,#462);
#400=AXIS2_PLACEMENT_3D('',#539,#463,#464);
#401=AXIS2_PLACEMENT_3D('',#540,#465,#466);
#402=AXIS2_PLACEMENT_3D('',#542,#467,#468);
#403=AXIS2_PLACEMENT_3D('',#544,#469,#470);
#404=AXIS2_PLACEMENT_3D('',#545,#471,#472);
#405=AXIS2_PLACEMENT_3D('',#547,#473,#474);
#406=AXIS2_PLACEMENT_3D('',#548,#475,#476);
#407=AXIS2_PLACEMENT_3D('',#549,#477,#478);
#408=AXIS2_PLACEMENT_3D('',#550,#479,#480);
#409=AXIS2_PLACEMENT_3D('',#552,#482,#483);
#410=AXIS2_PLACEMENT_3D('',#553,#484,#485);
#411=AXIS2_PLACEMENT_3D('',#555,#486,#487);
#412=AXIS2_PLACEMENT_3D('',#556,#488,#489);
#413=DIRECTION('',(0.,0.,1.));
#414=DIRECTION('',(1.,0.,0.));
#415=DIRECTION('',(-1.,-5.17910685515683E-17,5.57450635805618E-17));
#416=DIRECTION('',(-1.38777878078145E-16,8.50014503228635E-17,-1.));
#417=DIRECTION('',(-1.,-5.17910685515683E-17,5.57450635805618E-17));
#418=DIRECTION('',(-1.14491749414469E-16,-1.,-8.67361737988403E-19));
#419=DIRECTION('',(-1.,-5.17910685515683E-17,5.57450635805618E-17));
#420=DIRECTION('',(-1.14491749414469E-16,-1.,-8.67361737988403E-19));
#421=DIRECTION('',(-1.,-5.17910685515683E-17,5.57450635805618E-17));
#422=DIRECTION('',(-1.38777878078145E-16,8.50014503228635E-17,-1.));
#423=DIRECTION('',(1.,0.,0.));
#424=DIRECTION('',(0.,0.,-1.));
#425=DIRECTION('',(-1.,0.,0.));
#426=DIRECTION('',(0.,0.,1.));
#427=DIRECTION('',(-1.,0.,0.));
#428=DIRECTION('',(0.,0.,1.));
#429=DIRECTION('',(1.,0.,0.));
#430=DIRECTION('',(0.,0.,-1.));
#431=DIRECTION('',(1.,0.,0.));
#432=DIRECTION('',(0.,0.,-1.));
#433=DIRECTION('',(1.,0.,0.));
#434=DIRECTION('',(0.,0.,-1.));
#435=DIRECTION('',(-1.,0.,0.));
#436=DIRECTION('',(0.,0.,1.));
#437=DIRECTION('',(-1.,0.,0.));
#438=DIRECTION('',(1.,0.,0.));
#439=DIRECTION('',(0.,0.,-1.));
#440=DIRECTION('',(-1.,0.,0.));
#441=DIRECTION('',(-1.,0.,0.));
#442=DIRECTION('',(0.,0.,1.));
#443=DIRECTION('',(-1.,0.,0.));
#444=DIRECTION('',(0.,0.,1.));
#445=DIRECTION('',(-1.,0.,0.));
#446=DIRECTION('',(0.,0.,1.));
#447=DIRECTION('',(-1.,0.,0.));
#448=DIRECTION('',(0.,0.,1.));
#449=DIRECTION('',(0.,1.,0.));
#450=DIRECTION('',(0.,0.,-1.));
#451=DIRECTION('',(0.,-1.,0.));
#452=DIRECTION('',(0.,0.,-1.));
#453=DIRECTION('',(0.,-1.,0.));
#454=DIRECTION('',(0.,0.,-1.));
#455=DIRECTION('',(-1.,0.,0.));
#456=DIRECTION('',(0.,0.,1.));
#457=DIRECTION('',(-1.,0.,0.));
#458=DIRECTION('',(0.,0.,1.));
#459=DIRECTION('',(-1.,0.,0.));
#460=DIRECTION('',(0.,0.,1.));
#461=DIRECTION('',(1.,0.,0.));
#462=DIRECTION('',(0.,0.,-1.));
#463=DIRECTION('',(1.,0.,0.));
#464=DIRECTION('',(0.,0.,-1.));
#465=DIRECTION('',(1.,0.,0.));
#466=DIRECTION('',(0.,0.,-1.));
#467=DIRECTION('',(-1.,0.,0.));
#468=DIRECTION('',(0.,0.,1.));
#469=DIRECTION('',(1.,0.,0.));
#470=DIRECTION('',(0.,0.,-1.));
#471=DIRECTION('',(-1.,0.,0.));
#472=DIRECTION('',(0.,0.,1.));
#473=DIRECTION('',(1.,0.,0.));
#474=DIRECTION('',(0.,0.,-1.));
#475=DIRECTION('',(0.,1.,0.));
#476=DIRECTION('',(0.,0.,1.));
#477=DIRECTION('',(1.,0.,0.));
#478=DIRECTION('',(0.,0.,-1.));
#479=DIRECTION('',(1.,0.,0.));
#480=DIRECTION('',(0.,0.,-1.));
#481=DIRECTION('',(0.,0.,-1.));
#482=DIRECTION('',(0.,-1.,0.));
#483=DIRECTION('',(0.,0.,-1.));
#484=DIRECTION('',(0.,-1.,0.));
#485=DIRECTION('',(0.,0.,-1.));
#486=DIRECTION('',(-1.,0.,0.));
#487=DIRECTION('',(0.,0.,1.));
#488=DIRECTION('',(0.,-1.,0.));
#489=DIRECTION('',(0.,0.,-1.));
#490=CARTESIAN_POINT('',(0.,0.,0.));
#491=CARTESIAN_POINT('',(94.,2.07164274206273E-15,-2.22980254322247E-15));
#492=CARTESIAN_POINT('',(94.,2.07164274206273E-15,-2.22980254322247E-15));
#493=CARTESIAN_POINT('',(94.,-2.35,-2.23184084330675E-15));
#494=CARTESIAN_POINT('',(54.,0.,0.));
#495=CARTESIAN_POINT('',(54.,-2.35,-2.03830008427275E-18));
#496=CARTESIAN_POINT('',(94.,2.07164274206273E-15,-2.22980254322247E-15));
#497=CARTESIAN_POINT('',(-8.67361737988404E-16,9.30815665891964E-16,-7.0801534771997E-16));
#498=CARTESIAN_POINT('',(-4.80799360766978,9.30815665891964E-16,-7.0801534771997E-16));
#499=CARTESIAN_POINT('',(-4.80799360766978,9.30815665891964E-16,5.00768025569321));
#500=CARTESIAN_POINT('',(-8.67361737988404E-16,9.30815665891964E-16,-7.0801534771997E-16));
#501=CARTESIAN_POINT('',(-8.67361737988404E-16,9.30815665891964E-16,5.2));
#502=CARTESIAN_POINT('',(-5.,9.30815665891964E-16,-7.0801534771997E-16));
#503=CARTESIAN_POINT('',(-5.,9.30815665891964E-16,-7.0801534771997E-16));
#504=CARTESIAN_POINT('',(-5.,9.30815665891964E-16,-4.80784006394885));
#505=CARTESIAN_POINT('',(-4.8,9.30815665891964E-16,-7.0801534771997E-16));
#506=CARTESIAN_POINT('',(26.6990502471846,0.,0.));
#507=CARTESIAN_POINT('',(26.6990502471846,-5.29999999999999,-2.81247222208505));
#508=CARTESIAN_POINT('',(28.,-5.29999999999999,-2.81247222208505));
#509=CARTESIAN_POINT('',(47.8,-5.29999999999999,-2.81247222208505));
#510=CARTESIAN_POINT('',(28.,0.,0.));
#511=CARTESIAN_POINT('',(28.,-5.29999999999999,2.81247222208505));
#512=CARTESIAN_POINT('',(26.6990502471846,-5.29999999999999,2.81247222208505));
#513=CARTESIAN_POINT('',(47.8,-5.29999999999999,2.81247222208505));
#514=CARTESIAN_POINT('',(47.8,0.,0.));
#515=CARTESIAN_POINT('',(0.5,0.,0.));
#516=CARTESIAN_POINT('',(0.5,0.,5.99999999999999));
#517=CARTESIAN_POINT('',(47.8,0.,0.));
#518=CARTESIAN_POINT('',(47.8000000000001,-5.29999999999999,-2.8124722220851));
#519=CARTESIAN_POINT('',(48.212252338114,-5.29999999999999,-1.9329918811737));
#520=CARTESIAN_POINT('',(48.5,-5.29999999999999,-0.983355411179097));
#521=CARTESIAN_POINT('',(48.5,-5.29999999999999,4.22090018755378E-15));
#522=CARTESIAN_POINT('',(48.5,-5.29999999999999,0.));
#523=CARTESIAN_POINT('',(47.8,-5.29999999999999,2.81247222208505));
#524=CARTESIAN_POINT('',(48.21016179539,-5.29999999999999,1.9374517496996));
#525=CARTESIAN_POINT('',(48.5,-5.29999999999999,0.970706613478259));
#526=CARTESIAN_POINT('',(48.5,-5.29999999999999,-3.9946926884929E-15));
#527=CARTESIAN_POINT('',(48.5,0.,0.));
#528=CARTESIAN_POINT('',(30.2,-5.99999999999999,-3.67394039744204E-17));
#529=CARTESIAN_POINT('',(30.2,-5.1,-3.67394039744204E-17));
#530=CARTESIAN_POINT('',(30.2,-5.1,-1.3));
#531=CARTESIAN_POINT('',(30.2,-3.99999999999999,-3.67394039744204E-17));
#532=CARTESIAN_POINT('',(30.2,-3.99999999999999,-1.3));
#533=CARTESIAN_POINT('',(1.83690953073356E-16,5.99999999999999,0.));
#534=CARTESIAN_POINT('',(1.83690953073356E-16,0.,0.));
#535=CARTESIAN_POINT('',(1.83690953073356E-16,0.,5.49999999999999));
#536=CARTESIAN_POINT('',(26.6990502471846,0.,0.));
#537=CARTESIAN_POINT('',(54.3,0.,0.));
#538=CARTESIAN_POINT('',(54.3,0.,-5.3));
#539=CARTESIAN_POINT('',(55.,5.3,0.));
#540=CARTESIAN_POINT('',(55.,0.,0.));
#541=CARTESIAN_POINT('',(55.,0.,-4.6));
#542=CARTESIAN_POINT('',(55.,0.,0.));
#543=CARTESIAN_POINT('',(55.,0.,2.7639702342662));
#544=CARTESIAN_POINT('',(55.,0.,0.));
#545=CARTESIAN_POINT('',(54.,0.,0.));
#546=CARTESIAN_POINT('',(54.,0.,2.4));
#547=CARTESIAN_POINT('',(54.,2.4,0.));
#548=CARTESIAN_POINT('',(30.2,-3.99999999999999,-3.67394039744204E-17));
#549=CARTESIAN_POINT('',(0.,0.,0.));
#550=CARTESIAN_POINT('',(28.,-5.29999999999999,57.5586657246326));
#551=CARTESIAN_POINT('',(28.,-5.29999999999999,57.5586657246326));
#552=CARTESIAN_POINT('',(28.,-5.29999999999999,57.5586657246326));
#553=CARTESIAN_POINT('',(30.2,-5.29999999999999,-3.67394039744204E-17));
#554=CARTESIAN_POINT('',(30.2,-5.29999999999999,-1.5));
#555=CARTESIAN_POINT('',(54.3,0.,0.));
#556=CARTESIAN_POINT('',(30.2,-5.29999999999999,-3.67394039744204E-17));
#557=MECHANICAL_DESIGN_GEOMETRIC_PRESENTATION_REPRESENTATION('',(#216,#217,
#218,#219,#220,#221,#222,#223,#224,#225,#226,#227,#228,#229,#230,#231,#232,
#233,#234),#558);
#558=(
GEOMETRIC_REPRESENTATION_CONTEXT(3)
GLOBAL_UNCERTAINTY_ASSIGNED_CONTEXT((#559))
GLOBAL_UNIT_ASSIGNED_CONTEXT((#562,#561,#560))
REPRESENTATION_CONTEXT('V3M1_4A_fig','TOP_LEVEL_ASSEMBLY_PART')
);
#559=UNCERTAINTY_MEASURE_WITH_UNIT(LENGTH_MEASURE(0.005),#562,
'DISTANCE_ACCURACY_VALUE','Maximum Tolerance applied to model');
#560=(
NAMED_UNIT(*)
SI_UNIT($,.STERADIAN.)
SOLID_ANGLE_UNIT()
);
#561=(
NAMED_UNIT(*)
PLANE_ANGLE_UNIT()
SI_UNIT($,.RADIAN.)
);
#562=(
LENGTH_UNIT()
NAMED_UNIT(*)
SI_UNIT(.MILLI.,.METRE.)
);
#563=PRODUCT_DEFINITION_SHAPE('','',#564);
#564=PRODUCT_DEFINITION('','',#566,#565);
#565=PRODUCT_DEFINITION_CONTEXT('',#572,'design');
#566=PRODUCT_DEFINITION_FORMATION_WITH_SPECIFIED_SOURCE('','',#568,
 .NOT_KNOWN.);
#567=PRODUCT_RELATED_PRODUCT_CATEGORY('','',(#568));
#568=PRODUCT('V3M1_4A_fig','V3M1_4A_fig','V3M1_4A_fig',(#570));
#569=PRODUCT_CATEGORY('','');
#570=PRODUCT_CONTEXT('',#572,'mechanical');
#571=APPLICATION_PROTOCOL_DEFINITION('international standard',
'automotive_design',2010,#572);
#572=APPLICATION_CONTEXT(
'core data for automotive mechanical design processes');
ENDSEC;
END-ISO-10303-21;
