ISO-10303-21;
HEADER;
/* Generated by software containing ST-Developer
 * from STEP Tools, Inc. (www.steptools.com) 
 */
/* OPTION: strings as raw bytes, not using required /X/ escapes */

FILE_DESCRIPTION(
/* description */ (''),
/* implementation_level */ '2;1');

FILE_NAME(
/* name */ 'V3T1_3A_fig',
/* time_stamp */ '2017-05-15T18:14:53+02:00',
/* author */ ('GDA'),
/* organization */ ('MD Microdetectors'),
/* preprocessor_version */ 'ST-DEVELOPER v16.7',
/* originating_system */ 'DEX',
/* authorisation */ $);

FILE_SCHEMA (('AUTOMOTIVE_DESIGN {1 0 10303 214 3 1 1}'));
ENDSEC;

DATA;
#10=PROPERTY_DEFINITION_REPRESENTATION(#14,#12);
#11=PROPERTY_DEFINITION_REPRESENTATION(#15,#13);
#12=REPRESENTATION('',(#16),#638);
#13=REPRESENTATION('',(#17),#638);
#14=PROPERTY_DEFINITION('pmi validation property','',#643);
#15=PROPERTY_DEFINITION('pmi validation property','',#643);
#16=VALUE_REPRESENTATION_ITEM('number of annotations',COUNT_MEASURE(0.));
#17=VALUE_REPRESENTATION_ITEM('number of views',COUNT_MEASURE(0.));
#18=SHAPE_REPRESENTATION_RELATIONSHIP('','',#428,#19);
#19=ADVANCED_BREP_SHAPE_REPRESENTATION('',(#426),#638);
#20=B_SPLINE_CURVE_WITH_KNOTS('',3,(#618,#619,#620,#621),.UNSPECIFIED.,
 .F.,.F.,(4,4),(0.,0.00612372435695794),.UNSPECIFIED.);
#21=B_SPLINE_CURVE_WITH_KNOTS('',3,(#623,#624,#625,#626),.UNSPECIFIED.,
 .F.,.F.,(4,4),(2.37182979725839E-33,0.00612605081884634),.UNSPECIFIED.);
#22=LINE('',#613,#25);
#23=LINE('',#628,#26);
#24=LINE('',#629,#27);
#25=VECTOR('',#540,1000.);
#26=VECTOR('',#547,1000.);
#27=VECTOR('',#548,1000.);
#28=CONICAL_SURFACE('',#438,6.,1.22173047639603);
#29=CONICAL_SURFACE('',#446,6.,0.78539816339745);
#30=CONICAL_SURFACE('',#459,13.8,0.785398163397448);
#31=CONICAL_SURFACE('',#463,1.5,0.785398163397447);
#32=CONICAL_SURFACE('',#468,13.75,0.785398163397448);
#33=PLANE('',#433);
#34=PLANE('',#434);
#35=PLANE('',#448);
#36=PLANE('',#449);
#37=PLANE('',#452);
#38=PLANE('',#454);
#39=PLANE('',#461);
#40=PLANE('',#465);
#41=PLANE('',#469);
#42=ORIENTED_EDGE('',*,*,#92,.T.);
#43=ORIENTED_EDGE('',*,*,#93,.F.);
#44=ORIENTED_EDGE('',*,*,#92,.F.);
#45=ORIENTED_EDGE('',*,*,#94,.T.);
#46=ORIENTED_EDGE('',*,*,#95,.T.);
#47=ORIENTED_EDGE('',*,*,#94,.F.);
#48=ORIENTED_EDGE('',*,*,#96,.T.);
#49=ORIENTED_EDGE('',*,*,#97,.F.);
#50=ORIENTED_EDGE('',*,*,#98,.F.);
#51=ORIENTED_EDGE('',*,*,#99,.F.);
#52=ORIENTED_EDGE('',*,*,#100,.T.);
#53=ORIENTED_EDGE('',*,*,#96,.F.);
#54=ORIENTED_EDGE('',*,*,#101,.T.);
#55=ORIENTED_EDGE('',*,*,#100,.F.);
#56=ORIENTED_EDGE('',*,*,#98,.T.);
#57=ORIENTED_EDGE('',*,*,#101,.F.);
#58=ORIENTED_EDGE('',*,*,#93,.T.);
#59=ORIENTED_EDGE('',*,*,#99,.T.);
#60=ORIENTED_EDGE('',*,*,#97,.T.);
#61=ORIENTED_EDGE('',*,*,#102,.F.);
#62=ORIENTED_EDGE('',*,*,#103,.T.);
#63=ORIENTED_EDGE('',*,*,#104,.T.);
#64=ORIENTED_EDGE('',*,*,#105,.T.);
#65=ORIENTED_EDGE('',*,*,#106,.T.);
#66=ORIENTED_EDGE('',*,*,#103,.F.);
#67=ORIENTED_EDGE('',*,*,#107,.F.);
#68=ORIENTED_EDGE('',*,*,#105,.F.);
#69=ORIENTED_EDGE('',*,*,#108,.T.);
#70=ORIENTED_EDGE('',*,*,#109,.T.);
#71=ORIENTED_EDGE('',*,*,#106,.F.);
#72=ORIENTED_EDGE('',*,*,#110,.F.);
#73=ORIENTED_EDGE('',*,*,#110,.T.);
#74=ORIENTED_EDGE('',*,*,#111,.T.);
#75=ORIENTED_EDGE('',*,*,#112,.T.);
#76=ORIENTED_EDGE('',*,*,#113,.F.);
#77=ORIENTED_EDGE('',*,*,#109,.F.);
#78=ORIENTED_EDGE('',*,*,#114,.T.);
#79=ORIENTED_EDGE('',*,*,#107,.T.);
#80=ORIENTED_EDGE('',*,*,#113,.T.);
#81=ORIENTED_EDGE('',*,*,#115,.T.);
#82=ORIENTED_EDGE('',*,*,#114,.F.);
#83=ORIENTED_EDGE('',*,*,#108,.F.);
#84=ORIENTED_EDGE('',*,*,#111,.F.);
#85=ORIENTED_EDGE('',*,*,#115,.F.);
#86=ORIENTED_EDGE('',*,*,#112,.F.);
#87=ORIENTED_EDGE('',*,*,#102,.T.);
#88=ORIENTED_EDGE('',*,*,#95,.F.);
#89=ORIENTED_EDGE('',*,*,#116,.T.);
#90=ORIENTED_EDGE('',*,*,#116,.F.);
#91=ORIENTED_EDGE('',*,*,#104,.F.);
#92=EDGE_CURVE('',#117,#117,#139,.T.);
#93=EDGE_CURVE('',#118,#118,#140,.T.);
#94=EDGE_CURVE('',#119,#119,#141,.T.);
#95=EDGE_CURVE('',#120,#120,#142,.F.);
#96=EDGE_CURVE('',#121,#121,#143,.T.);
#97=EDGE_CURVE('',#122,#122,#144,.T.);
#98=EDGE_CURVE('',#123,#123,#145,.T.);
#99=EDGE_CURVE('',#124,#124,#146,.F.);
#100=EDGE_CURVE('',#125,#125,#147,.T.);
#101=EDGE_CURVE('',#126,#126,#148,.T.);
#102=EDGE_CURVE('',#127,#127,#149,.T.);
#103=EDGE_CURVE('',#128,#128,#150,.T.);
#104=EDGE_CURVE('',#129,#129,#151,.T.);
#105=EDGE_CURVE('',#130,#130,#152,.F.);
#106=EDGE_CURVE('',#131,#131,#153,.T.);
#107=EDGE_CURVE('',#132,#132,#154,.T.);
#108=EDGE_CURVE('',#133,#134,#155,.T.);
#109=EDGE_CURVE('',#134,#133,#22,.T.);
#110=EDGE_CURVE('',#135,#135,#156,.F.);
#111=EDGE_CURVE('',#136,#127,#20,.T.);
#112=EDGE_CURVE('',#127,#137,#21,.T.);
#113=EDGE_CURVE('',#133,#137,#23,.F.);
#114=EDGE_CURVE('',#134,#136,#24,.F.);
#115=EDGE_CURVE('',#137,#136,#157,.F.);
#116=EDGE_CURVE('',#138,#138,#158,.T.);
#117=VERTEX_POINT('',#564);
#118=VERTEX_POINT('',#566);
#119=VERTEX_POINT('',#570);
#120=VERTEX_POINT('',#573);
#121=VERTEX_POINT('',#576);
#122=VERTEX_POINT('',#578);
#123=VERTEX_POINT('',#581);
#124=VERTEX_POINT('',#583);
#125=VERTEX_POINT('',#586);
#126=VERTEX_POINT('',#589);
#127=VERTEX_POINT('',#594);
#128=VERTEX_POINT('',#597);
#129=VERTEX_POINT('',#600);
#130=VERTEX_POINT('',#602);
#131=VERTEX_POINT('',#605);
#132=VERTEX_POINT('',#608);
#133=VERTEX_POINT('',#611);
#134=VERTEX_POINT('',#612);
#135=VERTEX_POINT('',#616);
#136=VERTEX_POINT('',#622);
#137=VERTEX_POINT('',#627);
#138=VERTEX_POINT('',#635);
#139=CIRCLE('',#431,2.35);
#140=CIRCLE('',#432,2.35);
#141=CIRCLE('',#435,12.875);
#142=CIRCLE('',#437,12.875);
#143=CIRCLE('',#439,6.);
#144=CIRCLE('',#440,13.75);
#145=CIRCLE('',#442,2.4);
#146=CIRCLE('',#443,2.4);
#147=CIRCLE('',#445,6.);
#148=CIRCLE('',#447,5.25);
#149=CIRCLE('',#451,13.75);
#150=CIRCLE('',#453,1.3);
#151=CIRCLE('',#455,13.);
#152=CIRCLE('',#456,13.8);
#153=CIRCLE('',#458,1.3);
#154=CIRCLE('',#460,15.);
#155=CIRCLE('',#462,15.);
#156=CIRCLE('',#464,1.5);
#157=CIRCLE('',#467,15.);
#158=CIRCLE('',#470,13.);
#159=EDGE_LOOP('',(#42));
#160=EDGE_LOOP('',(#43));
#161=EDGE_LOOP('',(#44));
#162=EDGE_LOOP('',(#45));
#163=EDGE_LOOP('',(#46));
#164=EDGE_LOOP('',(#47));
#165=EDGE_LOOP('',(#48));
#166=EDGE_LOOP('',(#49));
#167=EDGE_LOOP('',(#50));
#168=EDGE_LOOP('',(#51));
#169=EDGE_LOOP('',(#52));
#170=EDGE_LOOP('',(#53));
#171=EDGE_LOOP('',(#54));
#172=EDGE_LOOP('',(#55));
#173=EDGE_LOOP('',(#56));
#174=EDGE_LOOP('',(#57));
#175=EDGE_LOOP('',(#58));
#176=EDGE_LOOP('',(#59));
#177=EDGE_LOOP('',(#60));
#178=EDGE_LOOP('',(#61));
#179=EDGE_LOOP('',(#62));
#180=EDGE_LOOP('',(#63));
#181=EDGE_LOOP('',(#64));
#182=EDGE_LOOP('',(#65));
#183=EDGE_LOOP('',(#66));
#184=EDGE_LOOP('',(#67));
#185=EDGE_LOOP('',(#68));
#186=EDGE_LOOP('',(#69,#70));
#187=EDGE_LOOP('',(#71));
#188=EDGE_LOOP('',(#72));
#189=EDGE_LOOP('',(#73));
#190=EDGE_LOOP('',(#74,#75,#76,#77,#78));
#191=EDGE_LOOP('',(#79));
#192=EDGE_LOOP('',(#80,#81,#82,#83));
#193=EDGE_LOOP('',(#84,#85,#86,#87));
#194=EDGE_LOOP('',(#88));
#195=EDGE_LOOP('',(#89));
#196=EDGE_LOOP('',(#90));
#197=EDGE_LOOP('',(#91));
#198=FACE_BOUND('',#159,.T.);
#199=FACE_BOUND('',#160,.T.);
#200=FACE_BOUND('',#161,.T.);
#201=FACE_BOUND('',#162,.T.);
#202=FACE_BOUND('',#163,.T.);
#203=FACE_BOUND('',#164,.T.);
#204=FACE_BOUND('',#165,.T.);
#205=FACE_BOUND('',#166,.T.);
#206=FACE_BOUND('',#167,.T.);
#207=FACE_BOUND('',#168,.T.);
#208=FACE_BOUND('',#169,.T.);
#209=FACE_BOUND('',#170,.T.);
#210=FACE_BOUND('',#171,.T.);
#211=FACE_BOUND('',#172,.T.);
#212=FACE_BOUND('',#173,.T.);
#213=FACE_BOUND('',#174,.T.);
#214=FACE_BOUND('',#175,.T.);
#215=FACE_BOUND('',#176,.T.);
#216=FACE_BOUND('',#177,.T.);
#217=FACE_BOUND('',#178,.T.);
#218=FACE_BOUND('',#179,.T.);
#219=FACE_BOUND('',#180,.T.);
#220=FACE_BOUND('',#181,.T.);
#221=FACE_BOUND('',#182,.T.);
#222=FACE_BOUND('',#183,.T.);
#223=FACE_BOUND('',#184,.T.);
#224=FACE_BOUND('',#185,.T.);
#225=FACE_BOUND('',#186,.T.);
#226=FACE_BOUND('',#187,.T.);
#227=FACE_BOUND('',#188,.T.);
#228=FACE_BOUND('',#189,.T.);
#229=FACE_BOUND('',#190,.T.);
#230=FACE_BOUND('',#191,.T.);
#231=FACE_BOUND('',#192,.T.);
#232=FACE_BOUND('',#193,.T.);
#233=FACE_BOUND('',#194,.T.);
#234=FACE_BOUND('',#195,.T.);
#235=FACE_BOUND('',#196,.T.);
#236=FACE_BOUND('',#197,.T.);
#237=CYLINDRICAL_SURFACE('',#430,2.35);
#238=CYLINDRICAL_SURFACE('',#436,12.875);
#239=CYLINDRICAL_SURFACE('',#441,2.4);
#240=CYLINDRICAL_SURFACE('',#444,6.);
#241=CYLINDRICAL_SURFACE('',#450,13.75);
#242=CYLINDRICAL_SURFACE('',#457,1.3);
#243=CYLINDRICAL_SURFACE('',#466,15.);
#244=CYLINDRICAL_SURFACE('',#471,13.);
#245=STYLED_ITEM('',(#267),#403);
#246=STYLED_ITEM('',(#268),#404);
#247=STYLED_ITEM('',(#269),#405);
#248=STYLED_ITEM('',(#270),#406);
#249=STYLED_ITEM('',(#271),#407);
#250=STYLED_ITEM('',(#272),#408);
#251=STYLED_ITEM('',(#273),#409);
#252=STYLED_ITEM('',(#274),#410);
#253=STYLED_ITEM('',(#275),#411);
#254=STYLED_ITEM('',(#276),#412);
#255=STYLED_ITEM('',(#277),#413);
#256=STYLED_ITEM('',(#278),#414);
#257=STYLED_ITEM('',(#279),#415);
#258=STYLED_ITEM('',(#280),#416);
#259=STYLED_ITEM('',(#281),#417);
#260=STYLED_ITEM('',(#282),#418);
#261=STYLED_ITEM('',(#283),#419);
#262=STYLED_ITEM('',(#284),#420);
#263=STYLED_ITEM('',(#285),#421);
#264=STYLED_ITEM('',(#286),#422);
#265=STYLED_ITEM('',(#287),#423);
#266=STYLED_ITEM('',(#288),#424);
#267=PRESENTATION_STYLE_ASSIGNMENT((#289));
#268=PRESENTATION_STYLE_ASSIGNMENT((#290));
#269=PRESENTATION_STYLE_ASSIGNMENT((#291));
#270=PRESENTATION_STYLE_ASSIGNMENT((#292));
#271=PRESENTATION_STYLE_ASSIGNMENT((#293));
#272=PRESENTATION_STYLE_ASSIGNMENT((#294));
#273=PRESENTATION_STYLE_ASSIGNMENT((#295));
#274=PRESENTATION_STYLE_ASSIGNMENT((#296));
#275=PRESENTATION_STYLE_ASSIGNMENT((#297));
#276=PRESENTATION_STYLE_ASSIGNMENT((#298));
#277=PRESENTATION_STYLE_ASSIGNMENT((#299));
#278=PRESENTATION_STYLE_ASSIGNMENT((#300));
#279=PRESENTATION_STYLE_ASSIGNMENT((#301));
#280=PRESENTATION_STYLE_ASSIGNMENT((#302));
#281=PRESENTATION_STYLE_ASSIGNMENT((#303));
#282=PRESENTATION_STYLE_ASSIGNMENT((#304));
#283=PRESENTATION_STYLE_ASSIGNMENT((#305));
#284=PRESENTATION_STYLE_ASSIGNMENT((#306));
#285=PRESENTATION_STYLE_ASSIGNMENT((#307));
#286=PRESENTATION_STYLE_ASSIGNMENT((#308));
#287=PRESENTATION_STYLE_ASSIGNMENT((#309));
#288=PRESENTATION_STYLE_ASSIGNMENT((#310));
#289=SURFACE_STYLE_USAGE(.BOTH.,#311);
#290=SURFACE_STYLE_USAGE(.BOTH.,#312);
#291=SURFACE_STYLE_USAGE(.BOTH.,#313);
#292=SURFACE_STYLE_USAGE(.BOTH.,#314);
#293=SURFACE_STYLE_USAGE(.BOTH.,#315);
#294=SURFACE_STYLE_USAGE(.BOTH.,#316);
#295=SURFACE_STYLE_USAGE(.BOTH.,#317);
#296=SURFACE_STYLE_USAGE(.BOTH.,#318);
#297=SURFACE_STYLE_USAGE(.BOTH.,#319);
#298=SURFACE_STYLE_USAGE(.BOTH.,#320);
#299=SURFACE_STYLE_USAGE(.BOTH.,#321);
#300=SURFACE_STYLE_USAGE(.BOTH.,#322);
#301=SURFACE_STYLE_USAGE(.BOTH.,#323);
#302=SURFACE_STYLE_USAGE(.BOTH.,#324);
#303=SURFACE_STYLE_USAGE(.BOTH.,#325);
#304=SURFACE_STYLE_USAGE(.BOTH.,#326);
#305=SURFACE_STYLE_USAGE(.BOTH.,#327);
#306=SURFACE_STYLE_USAGE(.BOTH.,#328);
#307=SURFACE_STYLE_USAGE(.BOTH.,#329);
#308=SURFACE_STYLE_USAGE(.BOTH.,#330);
#309=SURFACE_STYLE_USAGE(.BOTH.,#331);
#310=SURFACE_STYLE_USAGE(.BOTH.,#332);
#311=SURFACE_SIDE_STYLE('',(#333));
#312=SURFACE_SIDE_STYLE('',(#334));
#313=SURFACE_SIDE_STYLE('',(#335));
#314=SURFACE_SIDE_STYLE('',(#336));
#315=SURFACE_SIDE_STYLE('',(#337));
#316=SURFACE_SIDE_STYLE('',(#338));
#317=SURFACE_SIDE_STYLE('',(#339));
#318=SURFACE_SIDE_STYLE('',(#340));
#319=SURFACE_SIDE_STYLE('',(#341));
#320=SURFACE_SIDE_STYLE('',(#342));
#321=SURFACE_SIDE_STYLE('',(#343));
#322=SURFACE_SIDE_STYLE('',(#344));
#323=SURFACE_SIDE_STYLE('',(#345));
#324=SURFACE_SIDE_STYLE('',(#346));
#325=SURFACE_SIDE_STYLE('',(#347));
#326=SURFACE_SIDE_STYLE('',(#348));
#327=SURFACE_SIDE_STYLE('',(#349));
#328=SURFACE_SIDE_STYLE('',(#350));
#329=SURFACE_SIDE_STYLE('',(#351));
#330=SURFACE_SIDE_STYLE('',(#352));
#331=SURFACE_SIDE_STYLE('',(#353));
#332=SURFACE_SIDE_STYLE('',(#354));
#333=SURFACE_STYLE_FILL_AREA(#355);
#334=SURFACE_STYLE_FILL_AREA(#356);
#335=SURFACE_STYLE_FILL_AREA(#357);
#336=SURFACE_STYLE_FILL_AREA(#358);
#337=SURFACE_STYLE_FILL_AREA(#359);
#338=SURFACE_STYLE_FILL_AREA(#360);
#339=SURFACE_STYLE_FILL_AREA(#361);
#340=SURFACE_STYLE_FILL_AREA(#362);
#341=SURFACE_STYLE_FILL_AREA(#363);
#342=SURFACE_STYLE_FILL_AREA(#364);
#343=SURFACE_STYLE_FILL_AREA(#365);
#344=SURFACE_STYLE_FILL_AREA(#366);
#345=SURFACE_STYLE_FILL_AREA(#367);
#346=SURFACE_STYLE_FILL_AREA(#368);
#347=SURFACE_STYLE_FILL_AREA(#369);
#348=SURFACE_STYLE_FILL_AREA(#370);
#349=SURFACE_STYLE_FILL_AREA(#371);
#350=SURFACE_STYLE_FILL_AREA(#372);
#351=SURFACE_STYLE_FILL_AREA(#373);
#352=SURFACE_STYLE_FILL_AREA(#374);
#353=SURFACE_STYLE_FILL_AREA(#375);
#354=SURFACE_STYLE_FILL_AREA(#376);
#355=FILL_AREA_STYLE('',(#377));
#356=FILL_AREA_STYLE('',(#378));
#357=FILL_AREA_STYLE('',(#379));
#358=FILL_AREA_STYLE('',(#380));
#359=FILL_AREA_STYLE('',(#381));
#360=FILL_AREA_STYLE('',(#382));
#361=FILL_AREA_STYLE('',(#383));
#362=FILL_AREA_STYLE('',(#384));
#363=FILL_AREA_STYLE('',(#385));
#364=FILL_AREA_STYLE('',(#386));
#365=FILL_AREA_STYLE('',(#387));
#366=FILL_AREA_STYLE('',(#388));
#367=FILL_AREA_STYLE('',(#389));
#368=FILL_AREA_STYLE('',(#390));
#369=FILL_AREA_STYLE('',(#391));
#370=FILL_AREA_STYLE('',(#392));
#371=FILL_AREA_STYLE('',(#393));
#372=FILL_AREA_STYLE('',(#394));
#373=FILL_AREA_STYLE('',(#395));
#374=FILL_AREA_STYLE('',(#396));
#375=FILL_AREA_STYLE('',(#397));
#376=FILL_AREA_STYLE('',(#398));
#377=FILL_AREA_STYLE_COLOUR('',#399);
#378=FILL_AREA_STYLE_COLOUR('',#399);
#379=FILL_AREA_STYLE_COLOUR('',#400);
#380=FILL_AREA_STYLE_COLOUR('',#400);
#381=FILL_AREA_STYLE_COLOUR('',#401);
#382=FILL_AREA_STYLE_COLOUR('',#401);
#383=FILL_AREA_STYLE_COLOUR('',#401);
#384=FILL_AREA_STYLE_COLOUR('',#401);
#385=FILL_AREA_STYLE_COLOUR('',#401);
#386=FILL_AREA_STYLE_COLOUR('',#401);
#387=FILL_AREA_STYLE_COLOUR('',#401);
#388=FILL_AREA_STYLE_COLOUR('',#401);
#389=FILL_AREA_STYLE_COLOUR('',#401);
#390=FILL_AREA_STYLE_COLOUR('',#401);
#391=FILL_AREA_STYLE_COLOUR('',#401);
#392=FILL_AREA_STYLE_COLOUR('',#401);
#393=FILL_AREA_STYLE_COLOUR('',#401);
#394=FILL_AREA_STYLE_COLOUR('',#401);
#395=FILL_AREA_STYLE_COLOUR('',#402);
#396=FILL_AREA_STYLE_COLOUR('',#401);
#397=FILL_AREA_STYLE_COLOUR('',#401);
#398=FILL_AREA_STYLE_COLOUR('',#401);
#399=COLOUR_RGB('',0.800000071525574,0.800000071525574,0.800000011920929);
#400=COLOUR_RGB('',0.,0.,0.800000011920929);
#401=COLOUR_RGB('',0.899999976158142,0.899999976158142,0.899999976158142);
#402=COLOUR_RGB('',0.1875,0.75,0.581249892711639);
#403=ADVANCED_FACE('',(#198,#199),#237,.T.);
#404=ADVANCED_FACE('',(#200),#33,.F.);
#405=ADVANCED_FACE('',(#201),#34,.T.);
#406=ADVANCED_FACE('',(#202,#203),#238,.T.);
#407=ADVANCED_FACE('',(#204,#205),#28,.T.);
#408=ADVANCED_FACE('',(#206,#207),#239,.F.);
#409=ADVANCED_FACE('',(#208,#209),#240,.T.);
#410=ADVANCED_FACE('',(#210,#211),#29,.T.);
#411=ADVANCED_FACE('',(#212,#213),#35,.T.);
#412=ADVANCED_FACE('',(#214,#215),#36,.F.);
#413=ADVANCED_FACE('',(#216,#217),#241,.T.);
#414=ADVANCED_FACE('',(#218),#37,.F.);
#415=ADVANCED_FACE('',(#219,#220),#38,.F.);
#416=ADVANCED_FACE('',(#221,#222),#242,.F.);
#417=ADVANCED_FACE('',(#223,#224),#30,.T.);
#418=ADVANCED_FACE('',(#225),#39,.T.);
#419=ADVANCED_FACE('',(#226,#227),#31,.F.);
#420=ADVANCED_FACE('',(#228,#229),#40,.T.);
#421=ADVANCED_FACE('',(#230,#231),#243,.T.);
#422=ADVANCED_FACE('',(#232),#32,.T.);
#423=ADVANCED_FACE('',(#233,#234),#41,.F.);
#424=ADVANCED_FACE('',(#235,#236),#244,.F.);
#425=CLOSED_SHELL('',(#403,#404,#405,#406,#407,#408,#409,#410,#411,#412,
#413,#414,#415,#416,#417,#418,#419,#420,#421,#422,#423,#424));
#426=MANIFOLD_SOLID_BREP('',#425);
#427=SHAPE_DEFINITION_REPRESENTATION(#643,#428);
#428=SHAPE_REPRESENTATION('V3T1_3A_fig',(#429),#638);
#429=AXIS2_PLACEMENT_3D('',#561,#472,#473);
#430=AXIS2_PLACEMENT_3D('',#562,#474,#475);
#431=AXIS2_PLACEMENT_3D('',#563,#476,#477);
#432=AXIS2_PLACEMENT_3D('',#565,#478,#479);
#433=AXIS2_PLACEMENT_3D('',#567,#480,#481);
#434=AXIS2_PLACEMENT_3D('',#568,#482,#483);
#435=AXIS2_PLACEMENT_3D('',#569,#484,#485);
#436=AXIS2_PLACEMENT_3D('',#571,#486,#487);
#437=AXIS2_PLACEMENT_3D('',#572,#488,#489);
#438=AXIS2_PLACEMENT_3D('',#574,#490,#491);
#439=AXIS2_PLACEMENT_3D('',#575,#492,#493);
#440=AXIS2_PLACEMENT_3D('',#577,#494,#495);
#441=AXIS2_PLACEMENT_3D('',#579,#496,#497);
#442=AXIS2_PLACEMENT_3D('',#580,#498,#499);
#443=AXIS2_PLACEMENT_3D('',#582,#500,#501);
#444=AXIS2_PLACEMENT_3D('',#584,#502,#503);
#445=AXIS2_PLACEMENT_3D('',#585,#504,#505);
#446=AXIS2_PLACEMENT_3D('',#587,#506,#507);
#447=AXIS2_PLACEMENT_3D('',#588,#508,#509);
#448=AXIS2_PLACEMENT_3D('',#590,#510,#511);
#449=AXIS2_PLACEMENT_3D('',#591,#512,#513);
#450=AXIS2_PLACEMENT_3D('',#592,#514,#515);
#451=AXIS2_PLACEMENT_3D('',#593,#516,#517);
#452=AXIS2_PLACEMENT_3D('',#595,#518,#519);
#453=AXIS2_PLACEMENT_3D('',#596,#520,#521);
#454=AXIS2_PLACEMENT_3D('',#598,#522,#523);
#455=AXIS2_PLACEMENT_3D('',#599,#524,#525);
#456=AXIS2_PLACEMENT_3D('',#601,#526,#527);
#457=AXIS2_PLACEMENT_3D('',#603,#528,#529);
#458=AXIS2_PLACEMENT_3D('',#604,#530,#531);
#459=AXIS2_PLACEMENT_3D('',#606,#532,#533);
#460=AXIS2_PLACEMENT_3D('',#607,#534,#535);
#461=AXIS2_PLACEMENT_3D('',#609,#536,#537);
#462=AXIS2_PLACEMENT_3D('',#610,#538,#539);
#463=AXIS2_PLACEMENT_3D('',#614,#541,#542);
#464=AXIS2_PLACEMENT_3D('',#615,#543,#544);
#465=AXIS2_PLACEMENT_3D('',#617,#545,#546);
#466=AXIS2_PLACEMENT_3D('',#630,#549,#550);
#467=AXIS2_PLACEMENT_3D('',#631,#551,#552);
#468=AXIS2_PLACEMENT_3D('',#632,#553,#554);
#469=AXIS2_PLACEMENT_3D('',#633,#555,#556);
#470=AXIS2_PLACEMENT_3D('',#634,#557,#558);
#471=AXIS2_PLACEMENT_3D('',#636,#559,#560);
#472=DIRECTION('',(0.,0.,1.));
#473=DIRECTION('',(1.,0.,0.));
#474=DIRECTION('',(-1.,-8.54296130169723E-18,1.4998168722647E-18));
#475=DIRECTION('',(8.32667268468867E-17,1.66533453693773E-16,-1.));
#476=DIRECTION('',(-1.,-8.54296130169723E-18,1.4998168722647E-18));
#477=DIRECTION('',(-2.28983498828939E-16,-1.,0.));
#478=DIRECTION('',(-1.,-8.54296130169723E-18,1.4998168722647E-18));
#479=DIRECTION('',(-2.28983498828939E-16,-1.,0.));
#480=DIRECTION('',(-1.,-8.54296130169723E-18,1.4998168722647E-18));
#481=DIRECTION('',(8.32667268468867E-17,1.66533453693773E-16,-1.));
#482=DIRECTION('',(-1.,0.,0.));
#483=DIRECTION('',(0.,0.,1.));
#484=DIRECTION('',(-1.,0.,0.));
#485=DIRECTION('',(0.,0.,1.));
#486=DIRECTION('',(-1.,0.,0.));
#487=DIRECTION('',(0.,0.,1.));
#488=DIRECTION('',(1.,0.,0.));
#489=DIRECTION('',(0.,0.,-1.));
#490=DIRECTION('',(-1.,0.,0.));
#491=DIRECTION('',(0.,0.,1.));
#492=DIRECTION('',(-1.,0.,0.));
#493=DIRECTION('',(0.,0.,1.));
#494=DIRECTION('',(-1.,0.,0.));
#495=DIRECTION('',(0.,0.,1.));
#496=DIRECTION('',(-1.,0.,0.));
#497=DIRECTION('',(0.,0.,1.));
#498=DIRECTION('',(-1.,0.,0.));
#499=DIRECTION('',(0.,0.,1.));
#500=DIRECTION('',(-1.,0.,0.));
#501=DIRECTION('',(0.,0.,1.));
#502=DIRECTION('',(-1.,0.,0.));
#503=DIRECTION('',(0.,0.,1.));
#504=DIRECTION('',(-1.,0.,0.));
#505=DIRECTION('',(0.,0.,1.));
#506=DIRECTION('',(-1.,0.,0.));
#507=DIRECTION('',(0.,0.,1.));
#508=DIRECTION('',(-1.,0.,0.));
#509=DIRECTION('',(0.,0.,1.));
#510=DIRECTION('',(1.,0.,0.));
#511=DIRECTION('',(0.,0.,-1.));
#512=DIRECTION('',(-1.,0.,0.));
#513=DIRECTION('',(0.,0.,1.));
#514=DIRECTION('',(-1.,0.,0.));
#515=DIRECTION('',(0.,0.,1.));
#516=DIRECTION('',(-1.,0.,0.));
#517=DIRECTION('',(0.,0.,1.));
#518=DIRECTION('',(0.,-1.,-6.12323399573677E-17));
#519=DIRECTION('',(0.,6.12323399573677E-17,-1.));
#520=DIRECTION('',(0.,1.,6.12323399573677E-17));
#521=DIRECTION('',(0.,-6.12323399573677E-17,1.));
#522=DIRECTION('',(1.,0.,0.));
#523=DIRECTION('',(0.,0.,-1.));
#524=DIRECTION('',(1.,0.,0.));
#525=DIRECTION('',(0.,0.,1.));
#526=DIRECTION('',(1.,0.,0.));
#527=DIRECTION('',(0.,0.,-1.));
#528=DIRECTION('',(0.,-1.,-6.12323399573677E-17));
#529=DIRECTION('',(0.,-6.12323399573677E-17,1.));
#530=DIRECTION('',(0.,1.,6.12323399573681E-17));
#531=DIRECTION('',(0.,-6.12323399573681E-17,1.));
#532=DIRECTION('',(1.,0.,0.));
#533=DIRECTION('',(0.,0.,-1.));
#534=DIRECTION('',(1.,0.,0.));
#535=DIRECTION('',(0.,0.,-1.));
#536=DIRECTION('',(1.,0.,0.));
#537=DIRECTION('',(0.,0.,-1.));
#538=DIRECTION('',(1.,0.,0.));
#539=DIRECTION('',(0.,0.,-1.));
#540=DIRECTION('',(0.,0.,-1.));
#541=DIRECTION('',(0.,1.,6.12323399573681E-17));
#542=DIRECTION('',(0.,-6.12323399573681E-17,1.));
#543=DIRECTION('',(0.,1.,0.));
#544=DIRECTION('',(0.,0.,1.));
#545=DIRECTION('',(0.,1.,0.));
#546=DIRECTION('',(0.,0.,1.));
#547=DIRECTION('',(-1.,0.,0.));
#548=DIRECTION('',(-1.,0.,0.));
#549=DIRECTION('',(-1.,0.,0.));
#550=DIRECTION('',(0.,0.,1.));
#551=DIRECTION('',(1.,0.,0.));
#552=DIRECTION('',(0.,0.,-1.));
#553=DIRECTION('',(-1.,0.,0.));
#554=DIRECTION('',(0.,0.,1.));
#555=DIRECTION('',(1.,0.,0.));
#556=DIRECTION('',(0.,0.,-1.));
#557=DIRECTION('',(-1.,0.,0.));
#558=DIRECTION('',(0.,0.,1.));
#559=DIRECTION('',(1.,0.,0.));
#560=DIRECTION('',(0.,0.,1.));
#561=CARTESIAN_POINT('',(0.,0.,0.));
#562=CARTESIAN_POINT('',(90.,3.4171845206789E-16,-5.99926748905881E-17));
#563=CARTESIAN_POINT('',(90.,3.4171845206789E-16,-5.99926748905881E-17));
#564=CARTESIAN_POINT('',(90.,-2.35,-5.99926748905881E-17));
#565=CARTESIAN_POINT('',(50.,3.85185988877447E-31,0.));
#566=CARTESIAN_POINT('',(50.,-2.35,0.));
#567=CARTESIAN_POINT('',(90.,3.4171845206789E-16,-5.99926748905881E-17));
#568=CARTESIAN_POINT('',(2.16769245802569E-15,0.,0.));
#569=CARTESIAN_POINT('',(2.16840434497101E-15,0.,0.));
#570=CARTESIAN_POINT('',(2.16840434497101E-15,0.,12.875));
#571=CARTESIAN_POINT('',(1.15,0.,0.));
#572=CARTESIAN_POINT('',(3.,0.,0.));
#573=CARTESIAN_POINT('',(3.,0.,-12.875));
#574=CARTESIAN_POINT('',(50.,0.,0.));
#575=CARTESIAN_POINT('',(50.,0.,0.));
#576=CARTESIAN_POINT('',(50.,0.,6.));
#577=CARTESIAN_POINT('',(47.1792306844369,0.,0.));
#578=CARTESIAN_POINT('',(47.1792306844369,0.,13.75));
#579=CARTESIAN_POINT('',(-60.,0.,0.));
#580=CARTESIAN_POINT('',(55.,0.,0.));
#581=CARTESIAN_POINT('',(55.,0.,2.4));
#582=CARTESIAN_POINT('',(50.,0.,0.));
#583=CARTESIAN_POINT('',(50.,0.,2.4));
#584=CARTESIAN_POINT('',(-60.,0.,0.));
#585=CARTESIAN_POINT('',(54.25,0.,0.));
#586=CARTESIAN_POINT('',(54.25,0.,6.));
#587=CARTESIAN_POINT('',(54.25,0.,0.));
#588=CARTESIAN_POINT('',(55.,0.,0.));
#589=CARTESIAN_POINT('',(55.,0.,5.25));
#590=CARTESIAN_POINT('',(55.,0.,5.25));
#591=CARTESIAN_POINT('',(50.,13.9,0.));
#592=CARTESIAN_POINT('',(0.,0.,0.));
#593=CARTESIAN_POINT('',(42.3,0.,0.));
#594=CARTESIAN_POINT('',(42.3,13.75,0.));
#595=CARTESIAN_POINT('',(37.5,12.5,2.714388819652E-15));
#596=CARTESIAN_POINT('',(37.5,12.5,2.714388819652E-15));
#597=CARTESIAN_POINT('',(37.5,12.5,1.3));
#598=CARTESIAN_POINT('',(2.69439737858813E-16,15.,0.));
#599=CARTESIAN_POINT('',(2.69439737858813E-16,0.,-4.33680868994202E-16));
#600=CARTESIAN_POINT('',(2.69439737858813E-16,0.,13.));
#601=CARTESIAN_POINT('',(2.69439737858813E-16,0.,0.));
#602=CARTESIAN_POINT('',(2.69439737858813E-16,0.,-13.8));
#603=CARTESIAN_POINT('',(37.5,15.,2.86746966954542E-15));
#604=CARTESIAN_POINT('',(37.5,13.55,2.77868277660723E-15));
#605=CARTESIAN_POINT('',(37.5,13.55,1.3));
#606=CARTESIAN_POINT('',(0.,0.,0.));
#607=CARTESIAN_POINT('',(1.2,0.,0.));
#608=CARTESIAN_POINT('',(1.2,0.,-15.));
#609=CARTESIAN_POINT('',(34.5,15.7670160933852,69.7969145399037));
#610=CARTESIAN_POINT('',(34.5,0.,0.));
#611=CARTESIAN_POINT('',(34.5,13.75,-5.99478940414089));
#612=CARTESIAN_POINT('',(34.5,13.75,5.99478940414089));
#613=CARTESIAN_POINT('',(34.5,13.75,69.7969145399037));
#614=CARTESIAN_POINT('',(37.5,13.75,2.79092924459871E-15));
#615=CARTESIAN_POINT('',(37.5,13.75,2.79092924459871E-15));
#616=CARTESIAN_POINT('',(37.5,13.75,1.5));
#617=CARTESIAN_POINT('',(34.5,13.75,69.7969145399037));
#618=CARTESIAN_POINT('',(41.05,13.75,5.99478940414089));
#619=CARTESIAN_POINT('',(41.8192307692308,13.75,4.07004096669097));
#620=CARTESIAN_POINT('',(42.3,13.75,2.08514414057074));
#621=CARTESIAN_POINT('',(42.3,13.75,-1.5922029964697E-15));
#622=CARTESIAN_POINT('',(41.05,13.75,5.99478940414089));
#623=CARTESIAN_POINT('',(42.3,13.75,0.));
#624=CARTESIAN_POINT('',(42.3,13.75,-2.07260475755674));
#625=CARTESIAN_POINT('',(41.816782267087,13.75,-4.07616754256892));
#626=CARTESIAN_POINT('',(41.05,13.75,-5.9947894041409));
#627=CARTESIAN_POINT('',(41.05,13.75,-5.99478940414089));
#628=CARTESIAN_POINT('',(9.32215127976767,13.75,-5.99478940414089));
#629=CARTESIAN_POINT('',(9.32215127976767,13.75,5.99478940414089));
#630=CARTESIAN_POINT('',(9.32215127976767,0.,0.));
#631=CARTESIAN_POINT('',(41.05,0.,0.));
#632=CARTESIAN_POINT('',(42.3,0.,0.));
#633=CARTESIAN_POINT('',(3.,0.,-4.33680868994202E-16));
#634=CARTESIAN_POINT('',(3.,0.,-4.33680868994202E-16));
#635=CARTESIAN_POINT('',(3.,0.,13.));
#636=CARTESIAN_POINT('',(2.69439737858813E-16,0.,-4.33680868994202E-16));
#637=MECHANICAL_DESIGN_GEOMETRIC_PRESENTATION_REPRESENTATION('',(#245,#246,
#247,#248,#249,#250,#251,#252,#253,#254,#255,#256,#257,#258,#259,#260,#261,
#262,#263,#264,#265,#266),#638);
#638=(
GEOMETRIC_REPRESENTATION_CONTEXT(3)
GLOBAL_UNCERTAINTY_ASSIGNED_CONTEXT((#639))
GLOBAL_UNIT_ASSIGNED_CONTEXT((#642,#641,#640))
REPRESENTATION_CONTEXT('V3T1_3A_fig','TOP_LEVEL_ASSEMBLY_PART')
);
#639=UNCERTAINTY_MEASURE_WITH_UNIT(LENGTH_MEASURE(0.005),#642,
'DISTANCE_ACCURACY_VALUE','Maximum Tolerance applied to model');
#640=(
NAMED_UNIT(*)
SI_UNIT($,.STERADIAN.)
SOLID_ANGLE_UNIT()
);
#641=(
NAMED_UNIT(*)
PLANE_ANGLE_UNIT()
SI_UNIT($,.RADIAN.)
);
#642=(
LENGTH_UNIT()
NAMED_UNIT(*)
SI_UNIT(.MILLI.,.METRE.)
);
#643=PRODUCT_DEFINITION_SHAPE('','',#644);
#644=PRODUCT_DEFINITION('','',#646,#645);
#645=PRODUCT_DEFINITION_CONTEXT('',#652,'design');
#646=PRODUCT_DEFINITION_FORMATION_WITH_SPECIFIED_SOURCE('','',#648,
 .NOT_KNOWN.);
#647=PRODUCT_RELATED_PRODUCT_CATEGORY('','',(#648));
#648=PRODUCT('V3T1_3A_fig','V3T1_3A_fig','V3T1_3A_fig',(#650));
#649=PRODUCT_CATEGORY('','');
#650=PRODUCT_CONTEXT('',#652,'mechanical');
#651=APPLICATION_PROTOCOL_DEFINITION('international standard',
'automotive_design',2010,#652);
#652=APPLICATION_CONTEXT(
'core data for automotive mechanical design processes');
ENDSEC;
END-ISO-10303-21;
