ISO-10303-21;
HEADER;
/* Generated by software containing ST-Developer
 * from STEP Tools, Inc. (www.steptools.com) 
 */
/* OPTION: strings as raw bytes, not using required /X/ escapes */

FILE_DESCRIPTION(
/* description */ (''),
/* implementation_level */ '2;1');

FILE_NAME(
/* name */ 'V3T1_4A_fig',
/* time_stamp */ '2017-05-15T18:12:10+02:00',
/* author */ ('GDA'),
/* organization */ ('MD Microdetectors'),
/* preprocessor_version */ 'ST-DEVELOPER v16.7',
/* originating_system */ 'DEX',
/* authorisation */ $);

FILE_SCHEMA (('AUTOMOTIVE_DESIGN {1 0 10303 214 3 1 1}'));
ENDSEC;

DATA;
#10=PROPERTY_DEFINITION_REPRESENTATION(#14,#12);
#11=PROPERTY_DEFINITION_REPRESENTATION(#15,#13);
#12=REPRESENTATION('',(#16),#687);
#13=REPRESENTATION('',(#17),#687);
#14=PROPERTY_DEFINITION('pmi validation property','',#692);
#15=PROPERTY_DEFINITION('pmi validation property','',#692);
#16=VALUE_REPRESENTATION_ITEM('number of annotations',COUNT_MEASURE(0.));
#17=VALUE_REPRESENTATION_ITEM('number of views',COUNT_MEASURE(0.));
#18=SHAPE_REPRESENTATION_RELATIONSHIP('','',#457,#19);
#19=ADVANCED_BREP_SHAPE_REPRESENTATION('',(#455),#687);
#20=ORIENTED_CLOSED_SHELL('',*,#454,.F.);
#21=LINE('',#624,#24);
#22=LINE('',#629,#25);
#23=LINE('',#649,#26);
#24=VECTOR('',#525,1000.);
#25=VECTOR('',#528,1000.);
#26=VECTOR('',#541,1000.);
#27=B_SPLINE_CURVE_WITH_KNOTS('',3,(#609,#610,#611,#612,#613,#614,#615,
#616,#617,#618,#619),.UNSPECIFIED.,.T.,.F.,(1,1,1,1,1,1,1,1,1,1,1,1,1,1,
1),(-0.003049756537431,-0.002033171024954,-0.001016585512477,3.52990653115862E-18,
0.00101658551247701,0.00203317102495401,0.00304975653743101,0.00406634204990801,
0.00508292756238501,0.00609951307486201,0.00711609858733902,0.00813268409981602,
0.00914926961229302,0.01016585512477,0.011182440637247),.UNSPECIFIED.);
#28=B_SPLINE_CURVE_WITH_KNOTS('',3,(#640,#641,#642,#643),.UNSPECIFIED.,
 .F.,.F.,(4,4),(0.,0.00612372435695794),.UNSPECIFIED.);
#29=B_SPLINE_CURVE_WITH_KNOTS('',3,(#645,#646,#647,#648),.UNSPECIFIED.,
 .F.,.F.,(4,4),(2.37182979725839E-33,0.00612605081884634),.UNSPECIFIED.);
#30=CYLINDRICAL_SURFACE('',#465,1.3);
#31=CYLINDRICAL_SURFACE('',#467,15.);
#32=CYLINDRICAL_SURFACE('',#482,6.);
#33=CYLINDRICAL_SURFACE('',#489,13.75);
#34=CYLINDRICAL_SURFACE('',#494,13.3);
#35=CYLINDRICAL_SURFACE('',#495,2.35);
#36=TOROIDAL_SURFACE('',#464,12.6131111728052,0.4);
#37=PLANE('',#462);
#38=PLANE('',#474);
#39=PLANE('',#476);
#40=PLANE('',#479);
#41=PLANE('',#487);
#42=PLANE('',#492);
#43=PLANE('',#497);
#44=PLANE('',#498);
#45=PLANE('',#502);
#46=ORIENTED_EDGE('',*,*,#98,.T.);
#47=ORIENTED_EDGE('',*,*,#99,.T.);
#48=ORIENTED_EDGE('',*,*,#100,.T.);
#49=ORIENTED_EDGE('',*,*,#98,.F.);
#50=ORIENTED_EDGE('',*,*,#100,.F.);
#51=ORIENTED_EDGE('',*,*,#101,.T.);
#52=ORIENTED_EDGE('',*,*,#102,.F.);
#53=ORIENTED_EDGE('',*,*,#103,.T.);
#54=ORIENTED_EDGE('',*,*,#104,.T.);
#55=ORIENTED_EDGE('',*,*,#105,.T.);
#56=ORIENTED_EDGE('',*,*,#106,.F.);
#57=ORIENTED_EDGE('',*,*,#107,.F.);
#58=ORIENTED_EDGE('',*,*,#108,.T.);
#59=ORIENTED_EDGE('',*,*,#109,.F.);
#60=ORIENTED_EDGE('',*,*,#110,.T.);
#61=ORIENTED_EDGE('',*,*,#111,.T.);
#62=ORIENTED_EDGE('',*,*,#112,.T.);
#63=ORIENTED_EDGE('',*,*,#104,.F.);
#64=ORIENTED_EDGE('',*,*,#113,.F.);
#65=ORIENTED_EDGE('',*,*,#106,.T.);
#66=ORIENTED_EDGE('',*,*,#114,.F.);
#67=ORIENTED_EDGE('',*,*,#115,.T.);
#68=ORIENTED_EDGE('',*,*,#99,.F.);
#69=ORIENTED_EDGE('',*,*,#116,.T.);
#70=ORIENTED_EDGE('',*,*,#103,.F.);
#71=ORIENTED_EDGE('',*,*,#116,.F.);
#72=ORIENTED_EDGE('',*,*,#117,.T.);
#73=ORIENTED_EDGE('',*,*,#108,.F.);
#74=ORIENTED_EDGE('',*,*,#114,.T.);
#75=ORIENTED_EDGE('',*,*,#117,.F.);
#76=ORIENTED_EDGE('',*,*,#118,.T.);
#77=ORIENTED_EDGE('',*,*,#115,.F.);
#78=ORIENTED_EDGE('',*,*,#107,.T.);
#79=ORIENTED_EDGE('',*,*,#113,.T.);
#80=ORIENTED_EDGE('',*,*,#101,.F.);
#81=ORIENTED_EDGE('',*,*,#110,.F.);
#82=ORIENTED_EDGE('',*,*,#109,.T.);
#83=ORIENTED_EDGE('',*,*,#119,.F.);
#84=ORIENTED_EDGE('',*,*,#111,.F.);
#85=ORIENTED_EDGE('',*,*,#105,.F.);
#86=ORIENTED_EDGE('',*,*,#112,.F.);
#87=ORIENTED_EDGE('',*,*,#119,.T.);
#88=ORIENTED_EDGE('',*,*,#120,.F.);
#89=ORIENTED_EDGE('',*,*,#118,.F.);
#90=ORIENTED_EDGE('',*,*,#102,.T.);
#91=ORIENTED_EDGE('',*,*,#121,.T.);
#92=ORIENTED_EDGE('',*,*,#120,.T.);
#93=ORIENTED_EDGE('',*,*,#121,.F.);
#94=ORIENTED_EDGE('',*,*,#122,.T.);
#95=ORIENTED_EDGE('',*,*,#123,.T.);
#96=ORIENTED_EDGE('',*,*,#122,.F.);
#97=ORIENTED_EDGE('',*,*,#123,.F.);
#98=EDGE_CURVE('',#124,#124,#147,.F.);
#99=EDGE_CURVE('',#125,#125,#148,.F.);
#100=EDGE_CURVE('',#126,#126,#149,.T.);
#101=EDGE_CURVE('',#127,#127,#150,.T.);
#102=EDGE_CURVE('',#128,#128,#27,.T.);
#103=EDGE_CURVE('',#129,#129,#151,.T.);
#104=EDGE_CURVE('',#130,#131,#21,.F.);
#105=EDGE_CURVE('',#131,#132,#152,.F.);
#106=EDGE_CURVE('',#133,#132,#22,.F.);
#107=EDGE_CURVE('',#130,#133,#153,.T.);
#108=EDGE_CURVE('',#134,#134,#154,.T.);
#109=EDGE_CURVE('',#135,#135,#155,.T.);
#110=EDGE_CURVE('',#136,#136,#156,.F.);
#111=EDGE_CURVE('',#132,#137,#28,.T.);
#112=EDGE_CURVE('',#137,#131,#29,.T.);
#113=EDGE_CURVE('',#133,#130,#23,.T.);
#114=EDGE_CURVE('',#138,#138,#157,.T.);
#115=EDGE_CURVE('',#139,#139,#158,.T.);
#116=EDGE_CURVE('',#140,#140,#159,.F.);
#117=EDGE_CURVE('',#141,#141,#160,.T.);
#118=EDGE_CURVE('',#142,#142,#161,.F.);
#119=EDGE_CURVE('',#137,#137,#162,.T.);
#120=EDGE_CURVE('',#143,#143,#163,.T.);
#121=EDGE_CURVE('',#144,#144,#164,.T.);
#122=EDGE_CURVE('',#145,#145,#165,.F.);
#123=EDGE_CURVE('',#146,#146,#166,.F.);
#124=VERTEX_POINT('',#599);
#125=VERTEX_POINT('',#601);
#126=VERTEX_POINT('',#604);
#127=VERTEX_POINT('',#608);
#128=VERTEX_POINT('',#620);
#129=VERTEX_POINT('',#623);
#130=VERTEX_POINT('',#625);
#131=VERTEX_POINT('',#626);
#132=VERTEX_POINT('',#628);
#133=VERTEX_POINT('',#630);
#134=VERTEX_POINT('',#634);
#135=VERTEX_POINT('',#636);
#136=VERTEX_POINT('',#639);
#137=VERTEX_POINT('',#644);
#138=VERTEX_POINT('',#652);
#139=VERTEX_POINT('',#654);
#140=VERTEX_POINT('',#657);
#141=VERTEX_POINT('',#661);
#142=VERTEX_POINT('',#665);
#143=VERTEX_POINT('',#673);
#144=VERTEX_POINT('',#677);
#145=VERTEX_POINT('',#681);
#146=VERTEX_POINT('',#684);
#147=CIRCLE('',#460,13.0128891355969);
#148=CIRCLE('',#461,13.3933333333333);
#149=CIRCLE('',#463,12.6131111728052);
#150=CIRCLE('',#466,1.3);
#151=CIRCLE('',#468,15.);
#152=CIRCLE('',#469,15.);
#153=CIRCLE('',#470,15.);
#154=CIRCLE('',#472,6.);
#155=CIRCLE('',#473,13.75);
#156=CIRCLE('',#475,1.5);
#157=CIRCLE('',#477,5.25);
#158=CIRCLE('',#478,2.9459553513993);
#159=CIRCLE('',#480,13.8);
#160=CIRCLE('',#483,6.);
#161=CIRCLE('',#486,2.4);
#162=CIRCLE('',#490,13.75);
#163=CIRCLE('',#493,2.35);
#164=CIRCLE('',#496,2.35);
#165=CIRCLE('',#499,13.);
#166=CIRCLE('',#501,13.1);
#167=EDGE_LOOP('',(#46));
#168=EDGE_LOOP('',(#47));
#169=EDGE_LOOP('',(#48));
#170=EDGE_LOOP('',(#49));
#171=EDGE_LOOP('',(#50));
#172=EDGE_LOOP('',(#51));
#173=EDGE_LOOP('',(#52));
#174=EDGE_LOOP('',(#53));
#175=EDGE_LOOP('',(#54,#55,#56,#57));
#176=EDGE_LOOP('',(#58));
#177=EDGE_LOOP('',(#59));
#178=EDGE_LOOP('',(#60));
#179=EDGE_LOOP('',(#61,#62,#63,#64,#65));
#180=EDGE_LOOP('',(#66));
#181=EDGE_LOOP('',(#67));
#182=EDGE_LOOP('',(#68));
#183=EDGE_LOOP('',(#69));
#184=EDGE_LOOP('',(#70));
#185=EDGE_LOOP('',(#71));
#186=EDGE_LOOP('',(#72));
#187=EDGE_LOOP('',(#73));
#188=EDGE_LOOP('',(#74));
#189=EDGE_LOOP('',(#75));
#190=EDGE_LOOP('',(#76));
#191=EDGE_LOOP('',(#77));
#192=EDGE_LOOP('',(#78,#79));
#193=EDGE_LOOP('',(#80));
#194=EDGE_LOOP('',(#81));
#195=EDGE_LOOP('',(#82));
#196=EDGE_LOOP('',(#83));
#197=EDGE_LOOP('',(#84,#85,#86,#87));
#198=EDGE_LOOP('',(#88));
#199=EDGE_LOOP('',(#89));
#200=EDGE_LOOP('',(#90));
#201=EDGE_LOOP('',(#91));
#202=EDGE_LOOP('',(#92));
#203=EDGE_LOOP('',(#93));
#204=EDGE_LOOP('',(#94));
#205=EDGE_LOOP('',(#95));
#206=EDGE_LOOP('',(#96));
#207=EDGE_LOOP('',(#97));
#208=FACE_BOUND('',#167,.T.);
#209=FACE_BOUND('',#168,.T.);
#210=FACE_BOUND('',#169,.T.);
#211=FACE_BOUND('',#170,.T.);
#212=FACE_BOUND('',#171,.T.);
#213=FACE_BOUND('',#172,.T.);
#214=FACE_BOUND('',#173,.T.);
#215=FACE_BOUND('',#174,.T.);
#216=FACE_BOUND('',#175,.T.);
#217=FACE_BOUND('',#176,.T.);
#218=FACE_BOUND('',#177,.T.);
#219=FACE_BOUND('',#178,.T.);
#220=FACE_BOUND('',#179,.T.);
#221=FACE_BOUND('',#180,.T.);
#222=FACE_BOUND('',#181,.T.);
#223=FACE_BOUND('',#182,.T.);
#224=FACE_BOUND('',#183,.T.);
#225=FACE_BOUND('',#184,.T.);
#226=FACE_BOUND('',#185,.T.);
#227=FACE_BOUND('',#186,.T.);
#228=FACE_BOUND('',#187,.T.);
#229=FACE_BOUND('',#188,.T.);
#230=FACE_BOUND('',#189,.T.);
#231=FACE_BOUND('',#190,.T.);
#232=FACE_BOUND('',#191,.T.);
#233=FACE_BOUND('',#192,.T.);
#234=FACE_BOUND('',#193,.T.);
#235=FACE_BOUND('',#194,.T.);
#236=FACE_BOUND('',#195,.T.);
#237=FACE_BOUND('',#196,.T.);
#238=FACE_BOUND('',#197,.T.);
#239=FACE_BOUND('',#198,.T.);
#240=FACE_BOUND('',#199,.T.);
#241=FACE_BOUND('',#200,.T.);
#242=FACE_BOUND('',#201,.T.);
#243=FACE_BOUND('',#202,.T.);
#244=FACE_BOUND('',#203,.T.);
#245=FACE_BOUND('',#204,.T.);
#246=FACE_BOUND('',#205,.T.);
#247=FACE_BOUND('',#206,.T.);
#248=FACE_BOUND('',#207,.T.);
#249=CONICAL_SURFACE('',#459,13.,0.033320995878247);
#250=CONICAL_SURFACE('',#471,6.,1.22173047639603);
#251=CONICAL_SURFACE('',#481,13.8,0.785398163397448);
#252=CONICAL_SURFACE('',#484,6.,0.785398163397451);
#253=CONICAL_SURFACE('',#485,2.9459553513993,0.349065850398865);
#254=CONICAL_SURFACE('',#488,1.5,0.785398163397454);
#255=CONICAL_SURFACE('',#491,13.75,0.785398163397448);
#256=CONICAL_SURFACE('',#500,13.3,0.785398163397448);
#257=STYLED_ITEM('',(#281),#429);
#258=STYLED_ITEM('',(#282),#430);
#259=STYLED_ITEM('',(#283),#431);
#260=STYLED_ITEM('',(#284),#432);
#261=STYLED_ITEM('',(#285),#433);
#262=STYLED_ITEM('',(#286),#434);
#263=STYLED_ITEM('',(#287),#435);
#264=STYLED_ITEM('',(#288),#436);
#265=STYLED_ITEM('',(#289),#437);
#266=STYLED_ITEM('',(#290),#438);
#267=STYLED_ITEM('',(#291),#439);
#268=STYLED_ITEM('',(#292),#440);
#269=STYLED_ITEM('',(#293),#441);
#270=STYLED_ITEM('',(#294),#442);
#271=STYLED_ITEM('',(#295),#443);
#272=STYLED_ITEM('',(#296),#444);
#273=STYLED_ITEM('',(#297),#445);
#274=STYLED_ITEM('',(#298),#446);
#275=STYLED_ITEM('',(#299),#447);
#276=STYLED_ITEM('',(#300),#448);
#277=STYLED_ITEM('',(#301),#449);
#278=STYLED_ITEM('',(#302),#450);
#279=STYLED_ITEM('',(#303),#451);
#280=STYLED_ITEM('',(#304),#452);
#281=PRESENTATION_STYLE_ASSIGNMENT((#305));
#282=PRESENTATION_STYLE_ASSIGNMENT((#306));
#283=PRESENTATION_STYLE_ASSIGNMENT((#307));
#284=PRESENTATION_STYLE_ASSIGNMENT((#308));
#285=PRESENTATION_STYLE_ASSIGNMENT((#309));
#286=PRESENTATION_STYLE_ASSIGNMENT((#310));
#287=PRESENTATION_STYLE_ASSIGNMENT((#311));
#288=PRESENTATION_STYLE_ASSIGNMENT((#312));
#289=PRESENTATION_STYLE_ASSIGNMENT((#313));
#290=PRESENTATION_STYLE_ASSIGNMENT((#314));
#291=PRESENTATION_STYLE_ASSIGNMENT((#315));
#292=PRESENTATION_STYLE_ASSIGNMENT((#316));
#293=PRESENTATION_STYLE_ASSIGNMENT((#317));
#294=PRESENTATION_STYLE_ASSIGNMENT((#318));
#295=PRESENTATION_STYLE_ASSIGNMENT((#319));
#296=PRESENTATION_STYLE_ASSIGNMENT((#320));
#297=PRESENTATION_STYLE_ASSIGNMENT((#321));
#298=PRESENTATION_STYLE_ASSIGNMENT((#322));
#299=PRESENTATION_STYLE_ASSIGNMENT((#323));
#300=PRESENTATION_STYLE_ASSIGNMENT((#324));
#301=PRESENTATION_STYLE_ASSIGNMENT((#325));
#302=PRESENTATION_STYLE_ASSIGNMENT((#326));
#303=PRESENTATION_STYLE_ASSIGNMENT((#327));
#304=PRESENTATION_STYLE_ASSIGNMENT((#328));
#305=SURFACE_STYLE_USAGE(.BOTH.,#329);
#306=SURFACE_STYLE_USAGE(.BOTH.,#330);
#307=SURFACE_STYLE_USAGE(.BOTH.,#331);
#308=SURFACE_STYLE_USAGE(.BOTH.,#332);
#309=SURFACE_STYLE_USAGE(.BOTH.,#333);
#310=SURFACE_STYLE_USAGE(.BOTH.,#334);
#311=SURFACE_STYLE_USAGE(.BOTH.,#335);
#312=SURFACE_STYLE_USAGE(.BOTH.,#336);
#313=SURFACE_STYLE_USAGE(.BOTH.,#337);
#314=SURFACE_STYLE_USAGE(.BOTH.,#338);
#315=SURFACE_STYLE_USAGE(.BOTH.,#339);
#316=SURFACE_STYLE_USAGE(.BOTH.,#340);
#317=SURFACE_STYLE_USAGE(.BOTH.,#341);
#318=SURFACE_STYLE_USAGE(.BOTH.,#342);
#319=SURFACE_STYLE_USAGE(.BOTH.,#343);
#320=SURFACE_STYLE_USAGE(.BOTH.,#344);
#321=SURFACE_STYLE_USAGE(.BOTH.,#345);
#322=SURFACE_STYLE_USAGE(.BOTH.,#346);
#323=SURFACE_STYLE_USAGE(.BOTH.,#347);
#324=SURFACE_STYLE_USAGE(.BOTH.,#348);
#325=SURFACE_STYLE_USAGE(.BOTH.,#349);
#326=SURFACE_STYLE_USAGE(.BOTH.,#350);
#327=SURFACE_STYLE_USAGE(.BOTH.,#351);
#328=SURFACE_STYLE_USAGE(.BOTH.,#352);
#329=SURFACE_SIDE_STYLE('',(#353));
#330=SURFACE_SIDE_STYLE('',(#354));
#331=SURFACE_SIDE_STYLE('',(#355));
#332=SURFACE_SIDE_STYLE('',(#356));
#333=SURFACE_SIDE_STYLE('',(#357));
#334=SURFACE_SIDE_STYLE('',(#358));
#335=SURFACE_SIDE_STYLE('',(#359));
#336=SURFACE_SIDE_STYLE('',(#360));
#337=SURFACE_SIDE_STYLE('',(#361));
#338=SURFACE_SIDE_STYLE('',(#362));
#339=SURFACE_SIDE_STYLE('',(#363));
#340=SURFACE_SIDE_STYLE('',(#364));
#341=SURFACE_SIDE_STYLE('',(#365));
#342=SURFACE_SIDE_STYLE('',(#366));
#343=SURFACE_SIDE_STYLE('',(#367));
#344=SURFACE_SIDE_STYLE('',(#368));
#345=SURFACE_SIDE_STYLE('',(#369));
#346=SURFACE_SIDE_STYLE('',(#370));
#347=SURFACE_SIDE_STYLE('',(#371));
#348=SURFACE_SIDE_STYLE('',(#372));
#349=SURFACE_SIDE_STYLE('',(#373));
#350=SURFACE_SIDE_STYLE('',(#374));
#351=SURFACE_SIDE_STYLE('',(#375));
#352=SURFACE_SIDE_STYLE('',(#376));
#353=SURFACE_STYLE_FILL_AREA(#377);
#354=SURFACE_STYLE_FILL_AREA(#378);
#355=SURFACE_STYLE_FILL_AREA(#379);
#356=SURFACE_STYLE_FILL_AREA(#380);
#357=SURFACE_STYLE_FILL_AREA(#381);
#358=SURFACE_STYLE_FILL_AREA(#382);
#359=SURFACE_STYLE_FILL_AREA(#383);
#360=SURFACE_STYLE_FILL_AREA(#384);
#361=SURFACE_STYLE_FILL_AREA(#385);
#362=SURFACE_STYLE_FILL_AREA(#386);
#363=SURFACE_STYLE_FILL_AREA(#387);
#364=SURFACE_STYLE_FILL_AREA(#388);
#365=SURFACE_STYLE_FILL_AREA(#389);
#366=SURFACE_STYLE_FILL_AREA(#390);
#367=SURFACE_STYLE_FILL_AREA(#391);
#368=SURFACE_STYLE_FILL_AREA(#392);
#369=SURFACE_STYLE_FILL_AREA(#393);
#370=SURFACE_STYLE_FILL_AREA(#394);
#371=SURFACE_STYLE_FILL_AREA(#395);
#372=SURFACE_STYLE_FILL_AREA(#396);
#373=SURFACE_STYLE_FILL_AREA(#397);
#374=SURFACE_STYLE_FILL_AREA(#398);
#375=SURFACE_STYLE_FILL_AREA(#399);
#376=SURFACE_STYLE_FILL_AREA(#400);
#377=FILL_AREA_STYLE('',(#401));
#378=FILL_AREA_STYLE('',(#402));
#379=FILL_AREA_STYLE('',(#403));
#380=FILL_AREA_STYLE('',(#404));
#381=FILL_AREA_STYLE('',(#405));
#382=FILL_AREA_STYLE('',(#406));
#383=FILL_AREA_STYLE('',(#407));
#384=FILL_AREA_STYLE('',(#408));
#385=FILL_AREA_STYLE('',(#409));
#386=FILL_AREA_STYLE('',(#410));
#387=FILL_AREA_STYLE('',(#411));
#388=FILL_AREA_STYLE('',(#412));
#389=FILL_AREA_STYLE('',(#413));
#390=FILL_AREA_STYLE('',(#414));
#391=FILL_AREA_STYLE('',(#415));
#392=FILL_AREA_STYLE('',(#416));
#393=FILL_AREA_STYLE('',(#417));
#394=FILL_AREA_STYLE('',(#418));
#395=FILL_AREA_STYLE('',(#419));
#396=FILL_AREA_STYLE('',(#420));
#397=FILL_AREA_STYLE('',(#421));
#398=FILL_AREA_STYLE('',(#422));
#399=FILL_AREA_STYLE('',(#423));
#400=FILL_AREA_STYLE('',(#424));
#401=FILL_AREA_STYLE_COLOUR('',#425);
#402=FILL_AREA_STYLE_COLOUR('',#425);
#403=FILL_AREA_STYLE_COLOUR('',#425);
#404=FILL_AREA_STYLE_COLOUR('',#426);
#405=FILL_AREA_STYLE_COLOUR('',#427);
#406=FILL_AREA_STYLE_COLOUR('',#426);
#407=FILL_AREA_STYLE_COLOUR('',#426);
#408=FILL_AREA_STYLE_COLOUR('',#426);
#409=FILL_AREA_STYLE_COLOUR('',#426);
#410=FILL_AREA_STYLE_COLOUR('',#426);
#411=FILL_AREA_STYLE_COLOUR('',#426);
#412=FILL_AREA_STYLE_COLOUR('',#426);
#413=FILL_AREA_STYLE_COLOUR('',#426);
#414=FILL_AREA_STYLE_COLOUR('',#426);
#415=FILL_AREA_STYLE_COLOUR('',#426);
#416=FILL_AREA_STYLE_COLOUR('',#426);
#417=FILL_AREA_STYLE_COLOUR('',#426);
#418=FILL_AREA_STYLE_COLOUR('',#426);
#419=FILL_AREA_STYLE_COLOUR('',#426);
#420=FILL_AREA_STYLE_COLOUR('',#428);
#421=FILL_AREA_STYLE_COLOUR('',#428);
#422=FILL_AREA_STYLE_COLOUR('',#426);
#423=FILL_AREA_STYLE_COLOUR('',#426);
#424=FILL_AREA_STYLE_COLOUR('',#425);
#425=COLOUR_RGB('',0.,0.,0.800000011920929);
#426=COLOUR_RGB('',0.899999976158142,0.899999976158142,0.899999976158142);
#427=COLOUR_RGB('',0.1875,0.75,0.581249892711639);
#428=COLOUR_RGB('',0.800000071525574,0.800000071525574,0.800000011920929);
#429=ADVANCED_FACE('',(#208,#209),#249,.T.);
#430=ADVANCED_FACE('',(#210),#37,.T.);
#431=ADVANCED_FACE('',(#211,#212),#36,.T.);
#432=ADVANCED_FACE('',(#213,#214),#30,.F.);
#433=ADVANCED_FACE('',(#215,#216),#31,.T.);
#434=ADVANCED_FACE('',(#217,#218),#250,.T.);
#435=ADVANCED_FACE('',(#219,#220),#38,.T.);
#436=ADVANCED_FACE('',(#221,#222),#39,.T.);
#437=ADVANCED_FACE('',(#223,#224),#40,.F.);
#438=ADVANCED_FACE('',(#225,#226),#251,.T.);
#439=ADVANCED_FACE('',(#227,#228),#32,.T.);
#440=ADVANCED_FACE('',(#229,#230),#252,.T.);
#441=ADVANCED_FACE('',(#231,#232),#253,.F.);
#442=ADVANCED_FACE('',(#233),#41,.T.);
#443=ADVANCED_FACE('',(#234,#235),#254,.F.);
#444=ADVANCED_FACE('',(#236,#237),#33,.T.);
#445=ADVANCED_FACE('',(#238),#255,.T.);
#446=ADVANCED_FACE('',(#239,#240),#42,.T.);
#447=ADVANCED_FACE('',(#241),#34,.T.);
#448=ADVANCED_FACE('',(#242,#243),#35,.T.);
#449=ADVANCED_FACE('',(#244),#43,.F.);
#450=ADVANCED_FACE('',(#245),#44,.F.);
#451=ADVANCED_FACE('',(#246,#247),#256,.F.);
#452=ADVANCED_FACE('',(#248),#45,.T.);
#453=CLOSED_SHELL('',(#429,#430,#431,#432,#433,#434,#435,#436,#437,#438,
#439,#440,#441,#442,#443,#444,#445,#446,#447,#448,#449));
#454=CLOSED_SHELL('',(#450,#451,#452));
#455=BREP_WITH_VOIDS('',#453,(#20));
#456=SHAPE_DEFINITION_REPRESENTATION(#692,#457);
#457=SHAPE_REPRESENTATION('V3T1_4A_fig',(#458),#687);
#458=AXIS2_PLACEMENT_3D('',#596,#503,#504);
#459=AXIS2_PLACEMENT_3D('',#597,#505,#506);
#460=AXIS2_PLACEMENT_3D('',#598,#507,#508);
#461=AXIS2_PLACEMENT_3D('',#600,#509,#510);
#462=AXIS2_PLACEMENT_3D('',#602,#511,#512);
#463=AXIS2_PLACEMENT_3D('',#603,#513,#514);
#464=AXIS2_PLACEMENT_3D('',#605,#515,#516);
#465=AXIS2_PLACEMENT_3D('',#606,#517,#518);
#466=AXIS2_PLACEMENT_3D('',#607,#519,#520);
#467=AXIS2_PLACEMENT_3D('',#621,#521,#522);
#468=AXIS2_PLACEMENT_3D('',#622,#523,#524);
#469=AXIS2_PLACEMENT_3D('',#627,#526,#527);
#470=AXIS2_PLACEMENT_3D('',#631,#529,#530);
#471=AXIS2_PLACEMENT_3D('',#632,#531,#532);
#472=AXIS2_PLACEMENT_3D('',#633,#533,#534);
#473=AXIS2_PLACEMENT_3D('',#635,#535,#536);
#474=AXIS2_PLACEMENT_3D('',#637,#537,#538);
#475=AXIS2_PLACEMENT_3D('',#638,#539,#540);
#476=AXIS2_PLACEMENT_3D('',#650,#542,#543);
#477=AXIS2_PLACEMENT_3D('',#651,#544,#545);
#478=AXIS2_PLACEMENT_3D('',#653,#546,#547);
#479=AXIS2_PLACEMENT_3D('',#655,#548,#549);
#480=AXIS2_PLACEMENT_3D('',#656,#550,#551);
#481=AXIS2_PLACEMENT_3D('',#658,#552,#553);
#482=AXIS2_PLACEMENT_3D('',#659,#554,#555);
#483=AXIS2_PLACEMENT_3D('',#660,#556,#557);
#484=AXIS2_PLACEMENT_3D('',#662,#558,#559);
#485=AXIS2_PLACEMENT_3D('',#663,#560,#561);
#486=AXIS2_PLACEMENT_3D('',#664,#562,#563);
#487=AXIS2_PLACEMENT_3D('',#666,#564,#565);
#488=AXIS2_PLACEMENT_3D('',#667,#566,#567);
#489=AXIS2_PLACEMENT_3D('',#668,#568,#569);
#490=AXIS2_PLACEMENT_3D('',#669,#570,#571);
#491=AXIS2_PLACEMENT_3D('',#670,#572,#573);
#492=AXIS2_PLACEMENT_3D('',#671,#574,#575);
#493=AXIS2_PLACEMENT_3D('',#672,#576,#577);
#494=AXIS2_PLACEMENT_3D('',#674,#578,#579);
#495=AXIS2_PLACEMENT_3D('',#675,#580,#581);
#496=AXIS2_PLACEMENT_3D('',#676,#582,#583);
#497=AXIS2_PLACEMENT_3D('',#678,#584,#585);
#498=AXIS2_PLACEMENT_3D('',#679,#586,#587);
#499=AXIS2_PLACEMENT_3D('',#680,#588,#589);
#500=AXIS2_PLACEMENT_3D('',#682,#590,#591);
#501=AXIS2_PLACEMENT_3D('',#683,#592,#593);
#502=AXIS2_PLACEMENT_3D('',#685,#594,#595);
#503=DIRECTION('',(0.,0.,1.));
#504=DIRECTION('',(1.,0.,0.));
#505=DIRECTION('',(1.,0.,0.));
#506=DIRECTION('',(0.,0.,-1.));
#507=DIRECTION('',(-1.,0.,0.));
#508=DIRECTION('',(0.,0.,1.));
#509=DIRECTION('',(1.,0.,0.));
#510=DIRECTION('',(0.,0.,-1.));
#511=DIRECTION('',(-1.,0.,0.));
#512=DIRECTION('',(0.,0.,1.));
#513=DIRECTION('',(-1.,0.,0.));
#514=DIRECTION('',(0.,0.,1.));
#515=DIRECTION('',(-1.,0.,0.));
#516=DIRECTION('',(0.,0.,1.));
#517=DIRECTION('',(0.,-1.,0.));
#518=DIRECTION('',(0.,0.,-1.));
#519=DIRECTION('',(0.,1.,0.));
#520=DIRECTION('',(0.,0.,1.));
#521=DIRECTION('',(-1.,0.,0.));
#522=DIRECTION('',(0.,0.,1.));
#523=DIRECTION('',(1.,0.,0.));
#524=DIRECTION('',(0.,0.,-1.));
#525=DIRECTION('',(-1.,0.,0.));
#526=DIRECTION('',(1.,0.,0.));
#527=DIRECTION('',(0.,0.,-1.));
#528=DIRECTION('',(-1.,0.,0.));
#529=DIRECTION('',(1.,0.,0.));
#530=DIRECTION('',(0.,0.,-1.));
#531=DIRECTION('',(-1.,0.,0.));
#532=DIRECTION('',(0.,0.,1.));
#533=DIRECTION('',(-1.,0.,0.));
#534=DIRECTION('',(0.,0.,1.));
#535=DIRECTION('',(-1.,0.,0.));
#536=DIRECTION('',(0.,0.,1.));
#537=DIRECTION('',(-8.67361737988404E-17,1.,0.));
#538=DIRECTION('',(-1.,-8.67361737988404E-17,0.));
#539=DIRECTION('',(-8.67361737988404E-17,1.,0.));
#540=DIRECTION('',(-1.,-8.67361737988404E-17,0.));
#541=DIRECTION('',(0.,0.,-1.));
#542=DIRECTION('',(1.,0.,0.));
#543=DIRECTION('',(0.,0.,-1.));
#544=DIRECTION('',(-1.,0.,0.));
#545=DIRECTION('',(0.,0.,1.));
#546=DIRECTION('',(-1.,0.,0.));
#547=DIRECTION('',(0.,0.,1.));
#548=DIRECTION('',(1.,0.,0.));
#549=DIRECTION('',(0.,0.,-1.));
#550=DIRECTION('',(1.,0.,0.));
#551=DIRECTION('',(0.,0.,-1.));
#552=DIRECTION('',(1.,0.,0.));
#553=DIRECTION('',(0.,0.,-1.));
#554=DIRECTION('',(-1.,0.,0.));
#555=DIRECTION('',(0.,0.,1.));
#556=DIRECTION('',(-1.,0.,0.));
#557=DIRECTION('',(0.,0.,1.));
#558=DIRECTION('',(-1.,0.,0.));
#559=DIRECTION('',(0.,0.,1.));
#560=DIRECTION('',(1.,0.,0.));
#561=DIRECTION('',(0.,0.,-1.));
#562=DIRECTION('',(1.,0.,0.));
#563=DIRECTION('',(0.,0.,-1.));
#564=DIRECTION('',(1.,0.,0.));
#565=DIRECTION('',(0.,0.,-1.));
#566=DIRECTION('',(0.,1.,0.));
#567=DIRECTION('',(0.,0.,1.));
#568=DIRECTION('',(-1.,0.,0.));
#569=DIRECTION('',(0.,0.,1.));
#570=DIRECTION('',(-1.,0.,0.));
#571=DIRECTION('',(0.,0.,1.));
#572=DIRECTION('',(-1.,0.,0.));
#573=DIRECTION('',(0.,0.,1.));
#574=DIRECTION('',(1.,0.,0.));
#575=DIRECTION('',(0.,0.,-1.));
#576=DIRECTION('',(1.,0.,0.));
#577=DIRECTION('',(0.,0.,-1.));
#578=DIRECTION('',(-1.,0.,0.));
#579=DIRECTION('',(0.,0.,1.));
#580=DIRECTION('',(-1.,-8.54296130169723E-18,1.4998168722647E-18));
#581=DIRECTION('',(8.32667268468867E-17,1.66533453693773E-16,-1.));
#582=DIRECTION('',(-1.,-8.54296130169723E-18,1.4998168722647E-18));
#583=DIRECTION('',(-2.28983498828939E-16,-1.,0.));
#584=DIRECTION('',(-1.,-8.54296130169723E-18,1.4998168722647E-18));
#585=DIRECTION('',(8.32667268468867E-17,1.66533453693773E-16,-1.));
#586=DIRECTION('',(1.,0.,0.));
#587=DIRECTION('',(0.,0.,-1.));
#588=DIRECTION('',(1.,0.,0.));
#589=DIRECTION('',(0.,0.,-1.));
#590=DIRECTION('',(-1.,0.,0.));
#591=DIRECTION('',(0.,0.,1.));
#592=DIRECTION('',(1.,0.,0.));
#593=DIRECTION('',(0.,0.,-1.));
#594=DIRECTION('',(1.,0.,0.));
#595=DIRECTION('',(0.,0.,-1.));
#596=CARTESIAN_POINT('',(0.,0.,0.));
#597=CARTESIAN_POINT('',(-11.8,-5.65366413247256E-14,0.));
#598=CARTESIAN_POINT('',(-11.4133259320931,-5.65366413247256E-14,0.));
#599=CARTESIAN_POINT('',(-11.4133259320931,-5.65366413247256E-14,13.0128891355969));
#600=CARTESIAN_POINT('',(-1.73472347597681E-15,-5.65366413247256E-14,0.));
#601=CARTESIAN_POINT('',(-1.73472347597681E-15,-5.65366413247256E-14,-13.3933333333333));
#602=CARTESIAN_POINT('',(-11.8,-5.65366413247256E-14,0.));
#603=CARTESIAN_POINT('',(-11.8,-5.65366413247256E-14,0.));
#604=CARTESIAN_POINT('',(-11.8,-5.65366413247256E-14,12.6131111728052));
#605=CARTESIAN_POINT('',(-11.4,-5.65366413247256E-14,0.));
#606=CARTESIAN_POINT('',(25.7,60.5494838954057,0.));
#607=CARTESIAN_POINT('',(25.7,13.55,0.));
#608=CARTESIAN_POINT('',(25.7,13.55,1.3));
#609=CARTESIAN_POINT('',(26.7198353021568,13.2683137099588,-1.01787787413668));
#610=CARTESIAN_POINT('',(25.6997444236382,13.2203288635828,-1.44098190375357));
#611=CARTESIAN_POINT('',(24.6811870032905,13.2682529530265,-1.01819451084906));
#612=CARTESIAN_POINT('',(24.2595227622108,13.3158678891798,-0.00112098313871865));
#613=CARTESIAN_POINT('',(24.680723109696,13.2682753766919,1.01842115063148));
#614=CARTESIAN_POINT('',(25.6997484396983,13.2203674816332,1.44046475999851));
#615=CARTESIAN_POINT('',(26.7174208857806,13.2681368656703,1.01971928421737));
#616=CARTESIAN_POINT('',(27.1406850639564,13.3158872691922,0.00140172431347539));
#617=CARTESIAN_POINT('',(26.7198353021568,13.2683137099588,-1.01787787413668));
#618=CARTESIAN_POINT('',(25.6997444236382,13.2203288635828,-1.44098190375357));
#619=CARTESIAN_POINT('',(24.6811870032905,13.2682529530265,-1.01819451084906));
#620=CARTESIAN_POINT('',(25.7,13.2363136862194,-1.3));
#621=CARTESIAN_POINT('',(9.32215127976767,0.,0.));
#622=CARTESIAN_POINT('',(1.2,0.,0.));
#623=CARTESIAN_POINT('',(1.2,0.,-15.));
#624=CARTESIAN_POINT('',(9.32215127976767,13.75,-5.99478940414089));
#625=CARTESIAN_POINT('',(23.2,13.75,-5.99478940414089));
#626=CARTESIAN_POINT('',(29.25,13.75,-5.99478940414089));
#627=CARTESIAN_POINT('',(29.25,0.,0.));
#628=CARTESIAN_POINT('',(29.25,13.75,5.99478940414089));
#629=CARTESIAN_POINT('',(9.32215127976767,13.75,5.99478940414089));
#630=CARTESIAN_POINT('',(23.2,13.75,5.99478940414089));
#631=CARTESIAN_POINT('',(23.2,0.,0.));
#632=CARTESIAN_POINT('',(38.2,0.,0.));
#633=CARTESIAN_POINT('',(38.2,0.,0.));
#634=CARTESIAN_POINT('',(38.2,0.,6.));
#635=CARTESIAN_POINT('',(35.3792306844369,0.,0.));
#636=CARTESIAN_POINT('',(35.3792306844369,0.,13.75));
#637=CARTESIAN_POINT('',(23.2,13.75,60.9331541879347));
#638=CARTESIAN_POINT('',(25.7,13.75,0.));
#639=CARTESIAN_POINT('',(24.2,13.75,0.));
#640=CARTESIAN_POINT('',(29.25,13.75,5.99478940414089));
#641=CARTESIAN_POINT('',(30.0192307692308,13.75,4.07004096669097));
#642=CARTESIAN_POINT('',(30.5,13.75,2.08514414057074));
#643=CARTESIAN_POINT('',(30.5,13.75,-4.26734339334361E-15));
#644=CARTESIAN_POINT('',(30.5,13.75,0.));
#645=CARTESIAN_POINT('',(30.5,13.75,0.));
#646=CARTESIAN_POINT('',(30.5,13.75,-2.07260475755674));
#647=CARTESIAN_POINT('',(30.016782267087,13.75,-4.07616754256892));
#648=CARTESIAN_POINT('',(29.25,13.75,-5.9947894041409));
#649=CARTESIAN_POINT('',(23.2,13.75,60.9331541879347));
#650=CARTESIAN_POINT('',(43.2,0.,5.25));
#651=CARTESIAN_POINT('',(43.2,0.,0.));
#652=CARTESIAN_POINT('',(43.2,0.,5.25));
#653=CARTESIAN_POINT('',(43.2,0.,0.));
#654=CARTESIAN_POINT('',(43.2,0.,2.9459553513993));
#655=CARTESIAN_POINT('',(-1.04397651218033E-15,15.,0.));
#656=CARTESIAN_POINT('',(-1.04397651218033E-15,0.,0.));
#657=CARTESIAN_POINT('',(-1.04397651218033E-15,0.,-13.8));
#658=CARTESIAN_POINT('',(-1.73472347597681E-15,0.,0.));
#659=CARTESIAN_POINT('',(-60.,0.,0.));
#660=CARTESIAN_POINT('',(42.45,0.,0.));
#661=CARTESIAN_POINT('',(42.45,0.,6.));
#662=CARTESIAN_POINT('',(42.45,0.,0.));
#663=CARTESIAN_POINT('',(43.2,0.,0.));
#664=CARTESIAN_POINT('',(41.7,0.,0.));
#665=CARTESIAN_POINT('',(41.7,0.,-2.4));
#666=CARTESIAN_POINT('',(23.2,15.7670160933852,60.9331541879347));
#667=CARTESIAN_POINT('',(25.7,13.75,0.));
#668=CARTESIAN_POINT('',(0.,0.,0.));
#669=CARTESIAN_POINT('',(30.5,0.,0.));
#670=CARTESIAN_POINT('',(30.5,0.,0.));
#671=CARTESIAN_POINT('',(41.7,0.,0.));
#672=CARTESIAN_POINT('',(41.7,0.,0.));
#673=CARTESIAN_POINT('',(41.7,0.,-2.35));
#674=CARTESIAN_POINT('',(35.1891471702569,0.,0.));
#675=CARTESIAN_POINT('',(81.7,3.41718452067889E-16,-5.99926748905881E-17));
#676=CARTESIAN_POINT('',(81.7,3.41718452067889E-16,-5.99926748905881E-17));
#677=CARTESIAN_POINT('',(81.7,-2.35,-5.99926748905881E-17));
#678=CARTESIAN_POINT('',(81.7,3.41718452067889E-16,-5.99926748905881E-17));
#679=CARTESIAN_POINT('',(0.299999999999999,0.,0.));
#680=CARTESIAN_POINT('',(0.299999999999999,0.,0.));
#681=CARTESIAN_POINT('',(0.299999999999999,0.,-13.));
#682=CARTESIAN_POINT('',(-1.04397651218033E-15,0.,0.));
#683=CARTESIAN_POINT('',(0.199999999999994,0.,0.));
#684=CARTESIAN_POINT('',(0.199999999999994,0.,-13.1));
#685=CARTESIAN_POINT('',(0.199999999999994,13.3999999999999,0.));
#686=MECHANICAL_DESIGN_GEOMETRIC_PRESENTATION_REPRESENTATION('',(#257,#258,
#259,#260,#261,#262,#263,#264,#265,#266,#267,#268,#269,#270,#271,#272,#273,
#274,#275,#276,#277,#278,#279,#280),#687);
#687=(
GEOMETRIC_REPRESENTATION_CONTEXT(3)
GLOBAL_UNCERTAINTY_ASSIGNED_CONTEXT((#688))
GLOBAL_UNIT_ASSIGNED_CONTEXT((#691,#690,#689))
REPRESENTATION_CONTEXT('V3T1_4A_fig','TOP_LEVEL_ASSEMBLY_PART')
);
#688=UNCERTAINTY_MEASURE_WITH_UNIT(LENGTH_MEASURE(0.005),#691,
'DISTANCE_ACCURACY_VALUE','Maximum Tolerance applied to model');
#689=(
NAMED_UNIT(*)
SI_UNIT($,.STERADIAN.)
SOLID_ANGLE_UNIT()
);
#690=(
NAMED_UNIT(*)
PLANE_ANGLE_UNIT()
SI_UNIT($,.RADIAN.)
);
#691=(
LENGTH_UNIT()
NAMED_UNIT(*)
SI_UNIT(.MILLI.,.METRE.)
);
#692=PRODUCT_DEFINITION_SHAPE('','',#693);
#693=PRODUCT_DEFINITION('','',#695,#694);
#694=PRODUCT_DEFINITION_CONTEXT('',#701,'design');
#695=PRODUCT_DEFINITION_FORMATION_WITH_SPECIFIED_SOURCE('','',#697,
 .NOT_KNOWN.);
#696=PRODUCT_RELATED_PRODUCT_CATEGORY('','',(#697));
#697=PRODUCT('V3T1_4A_fig','V3T1_4A_fig','V3T1_4A_fig',(#699));
#698=PRODUCT_CATEGORY('','');
#699=PRODUCT_CONTEXT('',#701,'mechanical');
#700=APPLICATION_PROTOCOL_DEFINITION('international standard',
'automotive_design',2010,#701);
#701=APPLICATION_CONTEXT(
'core data for automotive mechanical design processes');
ENDSEC;
END-ISO-10303-21;
